  0
SECTION
  2
HEADER
  9
$ACADVER
  1
AC1015
  9
$ACADMAINTVER
 70
     6
  9
$DWGCODEPAGE
  3
ANSI_1252
  9
$INSBASE
 10
0.0
 20
0.0
 30
0.0
  9
$EXTMIN
 10
-87.0
 20
-7.0
 30
0.0
  9
$EXTMAX
 10
87.0
 20
7.0
 30
0.0
  9
$LIMMIN
 10
0.0
 20
0.0
  9
$LIMMAX
 10
420.0
 20
297.0
  9
$ORTHOMODE
 70
     0
  9
$REGENMODE
 70
     1
  9
$FILLMODE
 70
     1
  9
$QTEXTMODE
 70
     0
  9
$MIRRTEXT
 70
     1
  9
$LTSCALE
 40
1.0
  9
$ATTMODE
 70
     1
  9
$TEXTSIZE
 40
3.5
  9
$TRACEWID
 40
1.0
  9
$TEXTSTYLE
  7
Standard
  9
$CLAYER
  8
0
  9
$CELTYPE
  6
ByLayer
  9
$CECOLOR
 62
   256
  9
$CELTSCALE
 40
1.0
  9
$DISPSILH
 70
     0
  9
$DIMSCALE
 40
1.0
  9
$DIMASZ
 40
3.302
  9
$DIMEXO
 40
1.0
  9
$DIMDLI
 40
3.75
  9
$DIMRND
 40
0.0
  9
$DIMDLE
 40
0.0
  9
$DIMEXE
 40
1.0
  9
$DIMTP
 40
0.0
  9
$DIMTM
 40
0.0
  9
$DIMTXT
 40
3.5
  9
$DIMCEN
 40
2.5
  9
$DIMTSZ
 40
0.0
  9
$DIMTOL
 70
     0
  9
$DIMLIM
 70
     0
  9
$DIMTIH
 70
     1
  9
$DIMTOH
 70
     1
  9
$DIMSE1
 70
     0
  9
$DIMSE2
 70
     0
  9
$DIMTAD
 70
     1
  9
$DIMZIN
 70
     1
  9
$DIMBLK
  1

  9
$DIMASO
 70
     1
  9
$DIMSHO
 70
     1
  9
$DIMPOST
  1

  9
$DIMAPOST
  1

  9
$DIMALT
 70
     0
  9
$DIMALTD
 70
     3
  9
$DIMALTF
 40
0.0393700787
  9
$DIMLFAC
 40
1.0
  9
$DIMTOFL
 70
     1
  9
$DIMTVP
 40
0.0
  9
$DIMTIX
 70
     0
  9
$DIMSOXD
 70
     0
  9
$DIMSAH
 70
     0
  9
$DIMBLK1
  1

  9
$DIMBLK2
  1

  9
$DIMSTYLE
  2
ISO-25
  9
$DIMCLRD
 70
     0
  9
$DIMCLRE
 70
     0
  9
$DIMCLRT
 70
     0
  9
$DIMTFAC
 40
1.0
  9
$DIMGAP
 40
1.524
  9
$DIMJUST
 70
     0
  9
$DIMSD1
 70
     0
  9
$DIMSD2
 70
     0
  9
$DIMTOLJ
 70
     0
  9
$DIMTZIN
 70
     1
  9
$DIMALTZ
 70
     0
  9
$DIMALTTZ
 70
     0
  9
$DIMUPT
 70
     0
  9
$DIMDEC
 70
     2
  9
$DIMTDEC
 70
     2
  9
$DIMALTU
 70
     2
  9
$DIMALTTD
 70
     3
  9
$DIMTXSTY
  7
Standard
  9
$DIMAUNIT
 70
     0
  9
$DIMADEC
 70
     2
  9
$DIMALTRND
 40
0.0
  9
$DIMAZIN
 70
     0
  9
$DIMDSEP
 70
    44
  9
$DIMATFIT
 70
     3
  9
$DIMFRAC
 70
     0
  9
$DIMLDRBLK
  1

  9
$DIMLUNIT
 70
     2
  9
$DIMLWD
 70
    -2
  9
$DIMLWE
 70
    -2
  9
$DIMTMOVE
 70
     0
  9
$LUNITS
 70
     2
  9
$LUPREC
 70
     2
  9
$SKETCHINC
 40
1.0
  9
$FILLETRAD
 40
10.0
  9
$AUNITS
 70
     0
  9
$AUPREC
 70
     2
  9
$MENU
  1
.
  9
$ELEVATION
 40
0.0
  9
$PELEVATION
 40
0.0
  9
$THICKNESS
 40
0.0
  9
$LIMCHECK
 70
     0
  9
$CHAMFERA
 40
0.0
  9
$CHAMFERB
 40
0.0
  9
$CHAMFERC
 40
0.0
  9
$CHAMFERD
 40
0.0
  9
$SKPOLY
 70
     0
  9
$TDCREATE
 40
2458862.403703773
  9
$TDUCREATE
 40
2458862.403703773
  9
$TDUPDATE
 40
2458862.403725127
  9
$TDUUPDATE
 40
2458862.403725127
  9
$TDINDWG
 40
0.0000000116
  9
$TDUSRTIMER
 40
0.0000000116
  9
$USRTIMER
 70
     1
  9
$ANGBASE
 50
0.0
  9
$ANGDIR
 70
     0
  9
$PDMODE
 70
     0
  9
$PDSIZE
 40
-1.0
  9
$PLINEWID
 40
0.0
  9
$SPLFRAME
 70
     0
  9
$SPLINETYPE
 70
     6
  9
$SPLINESEGS
 70
     8
  9
$HANDSEED
  5
2C1
  9
$SURFTAB1
 70
     6
  9
$SURFTAB2
 70
     6
  9
$SURFTYPE
 70
     6
  9
$SURFU
 70
     6
  9
$SURFV
 70
     6
  9
$UCSBASE
  2

  9
$UCSNAME
  2

  9
$UCSORG
 10
0.0
 20
0.0
 30
0.0
  9
$UCSXDIR
 10
1.0
 20
0.0
 30
0.0
  9
$UCSYDIR
 10
0.0
 20
1.0
 30
0.0
  9
$UCSORTHOREF
  2

  9
$UCSORTHOVIEW
 70
     0
  9
$UCSORGTOP
 10
0.0
 20
0.0
 30
0.0
  9
$UCSORGBOTTOM
 10
0.0
 20
0.0
 30
0.0
  9
$UCSORGLEFT
 10
0.0
 20
0.0
 30
0.0
  9
$UCSORGRIGHT
 10
0.0
 20
0.0
 30
0.0
  9
$UCSORGFRONT
 10
0.0
 20
0.0
 30
0.0
  9
$UCSORGBACK
 10
0.0
 20
0.0
 30
0.0
  9
$PUCSBASE
  2

  9
$PUCSNAME
  2

  9
$PUCSORG
 10
0.0
 20
0.0
 30
0.0
  9
$PUCSXDIR
 10
1.0
 20
0.0
 30
0.0
  9
$PUCSYDIR
 10
0.0
 20
1.0
 30
0.0
  9
$PUCSORTHOREF
  2

  9
$PUCSORTHOVIEW
 70
     0
  9
$PUCSORGTOP
 10
0.0
 20
0.0
 30
0.0
  9
$PUCSORGBOTTOM
 10
0.0
 20
0.0
 30
0.0
  9
$PUCSORGLEFT
 10
0.0
 20
0.0
 30
0.0
  9
$PUCSORGRIGHT
 10
0.0
 20
0.0
 30
0.0
  9
$PUCSORGFRONT
 10
0.0
 20
0.0
 30
0.0
  9
$PUCSORGBACK
 10
0.0
 20
0.0
 30
0.0
  9
$USERI1
 70
     0
  9
$USERI2
 70
     0
  9
$USERI3
 70
     0
  9
$USERI4
 70
     0
  9
$USERI5
 70
     0
  9
$USERR1
 40
0.0
  9
$USERR2
 40
0.0
  9
$USERR3
 40
0.0
  9
$USERR4
 40
0.0
  9
$USERR5
 40
0.0
  9
$WORLDVIEW
 70
     1
  9
$SHADEDGE
 70
     3
  9
$SHADEDIF
 70
    70
  9
$TILEMODE
 70
     1
  9
$MAXACTVP
 70
    64
  9
$PINSBASE
 10
0.0
 20
0.0
 30
0.0
  9
$PLIMCHECK
 70
     0
  9
$PEXTMIN
 10
-87.0
 20
0.0
 30
0.0
  9
$PEXTMAX
 10
87.0
 20
34.0
 30
0.0
  9
$PLIMMIN
 10
-100.5408560311
 20
-5.0778210117
  9
$PLIMMAX
 10
100.5408560311
 20
137.1011673152
  9
$UNITMODE
 70
     0
  9
$VISRETAIN
 70
     1
  9
$PLINEGEN
 70
     0
  9
$PSLTSCALE
 70
     1
  9
$TREEDEPTH
 70
  3020
  9
$CMLSTYLE
  2
Standard
  9
$CMLJUST
 70
     0
  9
$CMLSCALE
 40
20.0
  9
$PROXYGRAPHICS
 70
     1
  9
$MEASUREMENT
 70
     1
  9
$CELWEIGHT
370
    -1
  9
$ENDCAPS
280
     0
  9
$JOINSTYLE
280
     0
  9
$LWDISPLAY
290
     1
  9
$INSUNITS
 70
     4
  9
$HYPERLINKBASE
  1

  9
$STYLESHEET
  1

  9
$XEDIT
290
     1
  9
$CEPSNTYPE
380
     0
  9
$PSTYLEMODE
290
     1
  9
$FINGERPRINTGUID
  2
{5c11aab0-bf53-4c87-8aeb-054ded9d1a39}
  9
$VERSIONGUID
  2
{FAEB1C32-E019-11D5-929B-00C0DF256EC4}
  9
$EXTNAMES
290
     1
  9
$PSVPSCALE
 40
0.0
  9
$OLESTARTUP
290
     0
  0
ENDSEC
  0
SECTION
  2
CLASSES
  0
CLASS
  1
ACDBDICTIONARYWDFLT
  2
AcDbDictionaryWithDefault
  3
ObjectDBX Classes
 90
        0
280
     0
281
     0
  0
CLASS
  1
VISUALSTYLE
  2
AcDbVisualStyle
  3
ObjectDBX Classes
 90
     4095
280
     0
281
     0
  0
CLASS
  1
MATERIAL
  2
AcDbMaterial
  3
ObjectDBX Classes
 90
     1153
280
     0
281
     0
  0
CLASS
  1
SCALE
  2
AcDbScale
  3
ObjectDBX Classes
 90
     1153
280
     0
281
     0
  0
CLASS
  1
TABLESTYLE
  2
AcDbTableStyle
  3
ObjectDBX Classes
 90
     4095
280
     0
281
     0
  0
CLASS
  1
MLEADERSTYLE
  2
AcDbMLeaderStyle
  3
ACDB_MLEADERSTYLE_CLASS
 90
     4095
280
     0
281
     0
  0
CLASS
  1
SUN
  2
AcDbSun
  3
SCENEOE
 90
     1153
280
     0
281
     0
  0
CLASS
  1
ACDBPLACEHOLDER
  2
AcDbPlaceHolder
  3
ObjectDBX Classes
 90
        0
280
     0
281
     0
  0
CLASS
  1
LAYOUT
  2
AcDbLayout
  3
ObjectDBX Classes
 90
        0
280
     0
281
     0
  0
ENDSEC
  0
SECTION
  2
TABLES
  0
TABLE
  2
VPORT
  5
8
330
0
100
AcDbSymbolTable
 70
     1
  0
VPORT
  5
29
330
8
100
AcDbSymbolTableRecord
100
AcDbViewportTableRecord
  2
*Active
 70
     0
 10
0.0
 20
0.0
 11
1.0
 21
1.0
 12
0.0
 22
0.0
 13
0.0
 23
0.0
 14
10.0
 24
10.0
 15
10.0
 25
10.0
 16
0.0
 26
0.0
 36
1.0
 17
0.0
 27
0.0
 37
0.0
 40
14.28
 41
12.4285714286
 42
50.0
 43
0.0
 44
0.0
 50
0.0
 51
0.0
 71
     0
 72
   100
 73
     1
 74
     3
 75
     0
 76
     0
 77
     0
 78
     0
281
     0
 65
     1
110
0.0
120
0.0
130
0.0
111
1.0
121
0.0
131
0.0
112
0.0
122
1.0
132
0.0
 79
     0
146
0.0
  0
ENDTAB
  0
TABLE
  2
LTYPE
  5
5
330
0
100
AcDbSymbolTable
 70
     6
  0
LTYPE
  5
14
330
5
100
AcDbSymbolTableRecord
100
AcDbLinetypeTableRecord
  2
ByBlock
 70
     0
  3

 72
    65
 73
     0
 40
0.0
  0
LTYPE
  5
15
330
5
100
AcDbSymbolTableRecord
100
AcDbLinetypeTableRecord
  2
ByLayer
 70
     0
  3

 72
    65
 73
     0
 40
0.0
  0
LTYPE
  5
16
330
5
100
AcDbSymbolTableRecord
100
AcDbLinetypeTableRecord
  2
Continuous
 70
     0
  3
Solid line
 72
    65
 73
     0
 40
0.0
  0
LTYPE
  5
6E
330
5
100
AcDbSymbolTableRecord
100
AcDbLinetypeTableRecord
  2
HIDDEN
 70
     0
  3
Hidden __ __ __ __ __ __ __ __ __ __ __ __ __ __
 72
    65
 73
     2
 40
1.905
 49
1.27
 74
     0
 49
-0.635
 74
     0
  0
LTYPE
  5
6F
330
5
100
AcDbSymbolTableRecord
100
AcDbLinetypeTableRecord
  2
PHANTOM
 70
     0
  3
Phantom ______  __  __  ______  __  __  ______
 72
    65
 73
     6
 40
12.7
 49
6.35
 74
     0
 49
-1.27
 74
     0
 49
1.27
 74
     0
 49
-1.27
 74
     0
 49
1.27
 74
     0
 49
-1.27
 74
     0
  0
LTYPE
  5
70
330
5
100
AcDbSymbolTableRecord
100
AcDbLinetypeTableRecord
  2
CENTER
 70
     0
  3
Center ____ _ ____ _ ____ _ ____ _ ____ _ ____
 72
    65
 73
     4
 40
10.16
 49
6.35
 74
     0
 49
-1.27
 74
     0
 49
1.27
 74
     0
 49
-1.27
 74
     0
  0
LTYPE
  5
71
330
5
100
AcDbSymbolTableRecord
100
AcDbLinetypeTableRecord
  2
CENTERX2
 70
     0
  3
Center (2x) ________  __  ________  __  _____
 72
    65
 73
     4
 40
20.32
 49
12.7
 74
     0
 49
-2.54
 74
     0
 49
2.54
 74
     0
 49
-2.54
 74
     0
  0
LTYPE
  5
72
330
5
100
AcDbSymbolTableRecord
100
AcDbLinetypeTableRecord
  2
DOT2
 70
     0
  3
Dot (.5x) ........................................
 72
    65
 73
     2
 40
0.635
 49
0.0
 74
     0
 49
-0.635
 74
     0
  0
ENDTAB
  0
TABLE
  2
LAYER
  5
2
330
0
100
AcDbSymbolTable
 70
     1
  0
LAYER
  5
10
330
2
100
AcDbSymbolTableRecord
100
AcDbLayerTableRecord
  2
0
 70
     0
 62
     7
  6
Continuous
370
    -3
390
F
  0
ENDTAB
  0
TABLE
  2
STYLE
  5
3
330
0
100
AcDbSymbolTable
 70
     1
  0
STYLE
  5
11
330
3
100
AcDbSymbolTableRecord
100
AcDbTextStyleTableRecord
  2
Standard
 70
     0
 40
0.0
 41
1.0
 50
0.0
 71
     0
 42
3.5
  3
txt
  4

  0
ENDTAB
  0
TABLE
  2
VIEW
  5
6
330
0
100
AcDbSymbolTable
 70
     0
  0
ENDTAB
  0
TABLE
  2
UCS
  5
7
330
0
100
AcDbSymbolTable
 70
     0
  0
ENDTAB
  0
TABLE
  2
APPID
  5
9
330
0
100
AcDbSymbolTable
 70
     1
  0
APPID
  5
12
330
9
100
AcDbSymbolTableRecord
100
AcDbRegAppTableRecord
  2
ACAD
 70
     0
  0
ENDTAB
  0
TABLE
  2
DIMSTYLE
  5
A
330
0
100
AcDbSymbolTable
 70
     1
100
AcDbDimStyleTable
  0
DIMSTYLE
105
27
330
A
100
AcDbSymbolTableRecord
100
AcDbDimStyleTableRecord
  2
ISO-25
 70
     0
 41
2.5
 42
0.625
 43
3.75
 44
1.25
 73
     0
 74
     0
 77
     1
 78
     8
140
2.5
141
2.5
143
0.0393700787
147
0.625
171
     3
172
     1
178
     0
271
     2
272
     2
274
     3
278
    44
283
     0
284
     8
340
11
  0
ENDTAB
  0
TABLE
  2
BLOCK_RECORD
  5
1
330
0
100
AcDbSymbolTable
 70
     8
  0
BLOCK_RECORD
  5
1F
330
1
100
AcDbSymbolTableRecord
100
AcDbBlockTableRecord
  2
*Model_Space
340
22
  0
BLOCK_RECORD
  5
1B
330
1
100
AcDbSymbolTableRecord
100
AcDbBlockTableRecord
  2
*Paper_Space
340
1E
  0
BLOCK_RECORD
  5
23
330
1
100
AcDbSymbolTableRecord
100
AcDbBlockTableRecord
  2
*Paper_Space0
340
26
  0
BLOCK_RECORD
  5
F6
330
1
100
AcDbSymbolTableRecord
100
AcDbBlockTableRecord
  2
*Paper_Space1
340
F7
  0
BLOCK_RECORD
  5
14C
330
1
100
AcDbSymbolTableRecord
100
AcDbBlockTableRecord
  2
*Paper_Space2
340
14D
  0
BLOCK_RECORD
  5
174
330
1
100
AcDbSymbolTableRecord
100
AcDbBlockTableRecord
  2
*Paper_Space3
340
175
  0
BLOCK_RECORD
  5
197
330
1
100
AcDbSymbolTableRecord
100
AcDbBlockTableRecord
  2
*Paper_Space4
340
198
  0
BLOCK_RECORD
  5
1DE
330
1
100
AcDbSymbolTableRecord
100
AcDbBlockTableRecord
  2
*Paper_Space5
340
1DF
  0
BLOCK_RECORD
  5
223
330
1
100
AcDbSymbolTableRecord
100
AcDbBlockTableRecord
  2
*Paper_Space6
340
224
  0
BLOCK_RECORD
  5
26A
330
1
100
AcDbSymbolTableRecord
100
AcDbBlockTableRecord
  2
*Paper_Space7
340
26B
  0
ENDTAB
  0
ENDSEC
  0
SECTION
  2
BLOCKS
  0
BLOCK
  5
20
330
1F
100
AcDbEntity
  8
0
100
AcDbBlockBegin
  2
*Model_Space
 70
     0
 10
0.0
 20
0.0
 30
0.0
  3
*Model_Space
  1

  0
ENDBLK
  5
21
330
1F
100
AcDbEntity
  8
0
100
AcDbBlockEnd
  0
BLOCK
  5
1C
330
1B
100
AcDbEntity
 67
     1
  8
0
100
AcDbBlockBegin
  2
*Paper_Space
 70
     0
 10
0.0
 20
0.0
 30
0.0
  3
*Paper_Space
  1

  0
ENDBLK
  5
1D
330
1B
100
AcDbEntity
 67
     1
  8
0
100
AcDbBlockEnd
  0
BLOCK
  5
24
330
23
100
AcDbEntity
  8
0
100
AcDbBlockBegin
  2
*Paper_Space0
 70
     0
 10
0.0
 20
0.0
 30
0.0
  3
*Paper_Space0
  1

  0
LINE
  5
E6
330
23
100
AcDbEntity
  8
0
  6
Continuous
 62
     7
370
    25
100
AcDbLine
 10
7.0
 20
0.3
 30
0.0
 11
7.0
 21
4.7
 31
0.0
  0
LINE
  5
E7
330
23
100
AcDbEntity
  8
0
  6
Continuous
 62
     7
370
    25
100
AcDbLine
 10
-7.0
 20
4.7
 30
0.0
 11
-7.0
 21
0.3
 31
0.0
  0
LINE
  5
E8
330
23
100
AcDbEntity
  8
0
  6
Continuous
 62
     7
370
    25
100
AcDbLine
 10
-7.0
 20
0.3
 30
0.0
 11
-6.7
 21
0.0
 31
0.0
  0
LINE
  5
E9
330
23
100
AcDbEntity
  8
0
  6
Continuous
 62
     7
370
    25
100
AcDbLine
 10
6.7
 20
0.0
 30
0.0
 11
7.0
 21
0.3
 31
0.0
  0
LINE
  5
EA
330
23
100
AcDbEntity
  8
0
  6
Continuous
 62
     7
370
    25
100
AcDbLine
 10
7.0
 20
4.7
 30
0.0
 11
6.7
 21
5.0
 31
0.0
  0
LINE
  5
EB
330
23
100
AcDbEntity
  8
0
  6
Continuous
 62
     7
370
    25
100
AcDbLine
 10
-6.7
 20
5.0
 30
0.0
 11
-7.0
 21
4.7
 31
0.0
  0
LINE
  5
EC
330
23
100
AcDbEntity
  8
0
  6
Continuous
 62
     7
370
    25
100
AcDbLine
 10
3.4
 20
5.0
 30
0.0
 11
3.4
 21
30.6
 31
0.0
  0
LINE
  5
ED
330
23
100
AcDbEntity
  8
0
  6
Continuous
 62
     7
370
    25
100
AcDbLine
 10
-3.4
 20
30.6
 30
0.0
 11
-3.4
 21
5.0
 31
0.0
  0
LINE
  5
EE
330
23
100
AcDbEntity
  8
0
  6
Continuous
 62
     7
370
    25
100
AcDbLine
 10
3.7
 20
5.0
 30
0.0
 11
3.4
 21
5.3
 31
0.0
  0
LINE
  5
EF
330
23
100
AcDbEntity
  8
0
  6
Continuous
 62
     7
370
    25
100
AcDbLine
 10
-3.4
 20
5.3
 30
0.0
 11
-3.7
 21
5.0
 31
0.0
  0
LINE
  5
F0
330
23
100
AcDbEntity
  8
0
  6
Continuous
 62
     7
370
    25
100
AcDbLine
 10
7.0
 20
4.7
 30
0.0
 11
-7.0
 21
4.7
 31
0.0
  0
LINE
  5
F1
330
23
100
AcDbEntity
  8
0
  6
Continuous
 62
     7
370
    25
100
AcDbLine
 10
-7.0
 20
0.3
 30
0.0
 11
7.0
 21
0.3
 31
0.0
  0
LINE
  5
F2
330
23
100
AcDbEntity
  8
0
  6
Continuous
 62
     7
370
    25
100
AcDbLine
 10
6.7
 20
0.0
 30
0.0
 11
-6.7
 21
0.0
 31
0.0
  0
LINE
  5
F3
330
23
100
AcDbEntity
  8
0
  6
Continuous
 62
     7
370
    25
100
AcDbLine
 10
-6.7
 20
5.0
 30
0.0
 11
6.7
 21
5.0
 31
0.0
  0
LINE
  5
F4
330
23
100
AcDbEntity
  8
0
  6
Continuous
 62
     8
370
    25
100
AcDbLine
 10
3.4
 20
20.6
 30
0.0
 11
-3.4
 21
20.6
 31
0.0
  0
ARC
  5
F5
330
23
100
AcDbEntity
  8
0
  6
Continuous
 62
     7
370
    25
100
AcDbCircle
 10
0.0
 20
30.6
 30
0.0
 40
3.399999999999999
100
AcDbArc
 50
0.0
 51
180.0
  0
VIEWPORT
  5
2B1
330
23
100
AcDbEntity
  8
0
100
AcDbViewport
 10
0.0
 20
0.0
 30
0.0
 40
205.6
 41
156.0
 68
     1
 69
     1
 12
0.0
 22
0.0
 13
0.0
 23
0.0
 14
10.0
 24
10.0
 15
10.0
 25
10.0
 16
0.0
 26
0.0
 36
1.0
 17
0.0
 27
0.0
 37
0.0
 42
50.0
 43
0.0
 44
0.0
 45
134.6638132296
 50
0.0
 51
0.0
 72
   100
 90
   557152
  1

281
     0
 71
     1
 74
     0
110
0.0
120
0.0
130
0.0
111
1.0
121
0.0
131
0.0
112
0.0
122
1.0
132
0.0
 79
     0
146
0.0
  0
ENDBLK
  5
25
330
23
100
AcDbEntity
  8
0
100
AcDbBlockEnd
  0
BLOCK
  5
F8
330
F6
100
AcDbEntity
  8
0
100
AcDbBlockBegin
  2
*Paper_Space1
 70
     0
 10
0.0
 20
0.0
 30
0.0
  3
*Paper_Space1
  1

  0
LINE
  5
127
330
F6
100
AcDbEntity
  8
0
  6
Continuous
 62
     7
370
    25
100
AcDbLine
 10
87.0
 20
0.3
 30
0.0
 11
87.0
 21
4.7
 31
0.0
  0
LINE
  5
128
330
F6
100
AcDbEntity
  8
0
  6
Continuous
 62
     7
370
    25
100
AcDbLine
 10
73.0
 20
4.7
 30
0.0
 11
73.0
 21
0.3
 31
0.0
  0
LINE
  5
129
330
F6
100
AcDbEntity
  8
0
  6
Continuous
 62
     7
370
    25
100
AcDbLine
 10
73.0
 20
0.3
 30
0.0
 11
73.3
 21
0.0
 31
0.0
  0
LINE
  5
12A
330
F6
100
AcDbEntity
  8
0
  6
Continuous
 62
     7
370
    25
100
AcDbLine
 10
86.7
 20
0.0
 30
0.0
 11
87.0
 21
0.3
 31
0.0
  0
LINE
  5
12B
330
F6
100
AcDbEntity
  8
0
  6
Continuous
 62
     7
370
    25
100
AcDbLine
 10
87.0
 20
4.7
 30
0.0
 11
86.7
 21
5.0
 31
0.0
  0
LINE
  5
12C
330
F6
100
AcDbEntity
  8
0
  6
Continuous
 62
     7
370
    25
100
AcDbLine
 10
73.3
 20
5.0
 30
0.0
 11
73.0
 21
4.7
 31
0.0
  0
LINE
  5
12D
330
F6
100
AcDbEntity
  8
0
  6
Continuous
 62
     7
370
    25
100
AcDbLine
 10
-73.0
 20
4.7
 30
0.0
 11
-73.3
 21
5.0
 31
0.0
  0
LINE
  5
12E
330
F6
100
AcDbEntity
  8
0
  6
Continuous
 62
     7
370
    25
100
AcDbLine
 10
-86.7
 20
5.0
 30
0.0
 11
-87.0
 21
4.7
 31
0.0
  0
LINE
  5
12F
330
F6
100
AcDbEntity
  8
0
  6
Continuous
 62
     7
370
    25
100
AcDbLine
 10
-73.0
 20
0.3
 30
0.0
 11
-73.0
 21
4.7
 31
0.0
  0
LINE
  5
130
330
F6
100
AcDbEntity
  8
0
  6
Continuous
 62
     7
370
    25
100
AcDbLine
 10
-87.0
 20
4.7
 30
0.0
 11
-87.0
 21
0.3
 31
0.0
  0
LINE
  5
131
330
F6
100
AcDbEntity
  8
0
  6
Continuous
 62
     7
370
    25
100
AcDbLine
 10
-87.0
 20
0.3
 30
0.0
 11
-86.7
 21
0.0
 31
0.0
  0
LINE
  5
132
330
F6
100
AcDbEntity
  8
0
  6
Continuous
 62
     7
370
    25
100
AcDbLine
 10
-73.3
 20
0.0
 30
0.0
 11
-73.0
 21
0.3
 31
0.0
  0
LINE
  5
133
330
F6
100
AcDbEntity
  8
0
  6
Continuous
 62
     7
370
    25
100
AcDbLine
 10
-76.3
 20
5.0
 30
0.0
 11
-76.6
 21
5.3
 31
0.0
  0
LINE
  5
134
330
F6
100
AcDbEntity
  8
0
  6
Continuous
 62
     7
370
    25
100
AcDbLine
 10
-83.4
 20
5.3
 30
0.0
 11
-83.7
 21
5.0
 31
0.0
  0
LINE
  5
135
330
F6
100
AcDbEntity
  8
0
  6
Continuous
 62
     7
370
    25
100
AcDbLine
 10
-83.4
 20
20.6
 30
0.0
 11
-83.4
 21
5.3
 31
0.0
  0
LINE
  5
136
330
F6
100
AcDbEntity
  8
0
  6
Continuous
 62
     7
370
    25
100
AcDbLine
 10
-76.6
 20
5.3
 30
0.0
 11
-76.6
 21
20.6
 31
0.0
  0
LINE
  5
137
330
F6
100
AcDbEntity
  8
0
  6
Continuous
 62
     7
370
    25
100
AcDbLine
 10
70.0
 20
34.0
 30
0.0
 11
-70.0
 21
34.0
 31
0.0
  0
LINE
  5
138
330
F6
100
AcDbEntity
  8
0
  6
Continuous
 62
     7
370
    25
100
AcDbLine
 10
-70.0
 20
27.2
 30
0.0
 11
70.0
 21
27.2
 31
0.0
  0
LINE
  5
139
330
F6
100
AcDbEntity
  8
0
  6
Continuous
 62
     7
370
    25
100
AcDbLine
 10
83.4
 20
5.0
 30
0.0
 11
83.4
 21
20.6
 31
0.0
  0
LINE
  5
13A
330
F6
100
AcDbEntity
  8
0
  6
Continuous
 62
     7
370
    25
100
AcDbLine
 10
76.6
 20
20.6
 30
0.0
 11
76.6
 21
5.0
 31
0.0
  0
LINE
  5
13B
330
F6
100
AcDbEntity
  8
0
  6
Continuous
 62
     7
370
    25
100
AcDbLine
 10
87.0
 20
4.7
 30
0.0
 11
73.0
 21
4.7
 31
0.0
  0
LINE
  5
13C
330
F6
100
AcDbEntity
  8
0
  6
Continuous
 62
     7
370
    25
100
AcDbLine
 10
73.0
 20
0.3
 30
0.0
 11
87.0
 21
0.3
 31
0.0
  0
LINE
  5
13D
330
F6
100
AcDbEntity
  8
0
  6
Continuous
 62
     7
370
    25
100
AcDbLine
 10
86.7
 20
0.0
 30
0.0
 11
73.3
 21
0.0
 31
0.0
  0
LINE
  5
13E
330
F6
100
AcDbEntity
  8
0
  6
Continuous
 62
     7
370
    25
100
AcDbLine
 10
73.3
 20
5.0
 30
0.0
 11
86.7
 21
5.0
 31
0.0
  0
LINE
  5
13F
330
F6
100
AcDbEntity
  8
0
  6
Continuous
 62
     7
370
    25
100
AcDbLine
 10
-73.0
 20
4.7
 30
0.0
 11
-87.0
 21
4.7
 31
0.0
  0
LINE
  5
140
330
F6
100
AcDbEntity
  8
0
  6
Continuous
 62
     7
370
    25
100
AcDbLine
 10
-86.7
 20
5.0
 30
0.0
 11
-73.3
 21
5.0
 31
0.0
  0
LINE
  5
141
330
F6
100
AcDbEntity
  8
0
  6
Continuous
 62
     7
370
    25
100
AcDbLine
 10
-87.0
 20
0.3
 30
0.0
 11
-73.0
 21
0.3
 31
0.0
  0
LINE
  5
142
330
F6
100
AcDbEntity
  8
0
  6
Continuous
 62
     7
370
    25
100
AcDbLine
 10
-73.3
 20
0.0
 30
0.0
 11
-86.7
 21
0.0
 31
0.0
  0
LINE
  5
143
330
F6
100
AcDbEntity
  8
0
  6
Continuous
 62
     7
370
    25
100
AcDbLine
 10
-83.4
 20
5.3
 30
0.0
 11
-76.6
 21
5.3
 31
0.0
  0
LINE
  5
144
330
F6
100
AcDbEntity
  8
0
  6
Continuous
 62
     8
370
    25
100
AcDbLine
 10
-83.4
 20
20.6
 30
0.0
 11
-76.6
 21
20.6
 31
0.0
  0
LINE
  5
145
330
F6
100
AcDbEntity
  8
0
  6
Continuous
 62
     8
370
    25
100
AcDbLine
 10
-70.0
 20
34.0
 30
0.0
 11
-70.0
 21
27.2
 31
0.0
  0
LINE
  5
146
330
F6
100
AcDbEntity
  8
0
  6
Continuous
 62
     8
370
    25
100
AcDbLine
 10
70.0
 20
34.0
 30
0.0
 11
70.0
 21
27.2
 31
0.0
  0
LINE
  5
147
330
F6
100
AcDbEntity
  8
0
  6
Continuous
 62
     8
370
    25
100
AcDbLine
 10
83.4
 20
20.6
 30
0.0
 11
76.6
 21
20.6
 31
0.0
  0
ARC
  5
148
330
F6
100
AcDbEntity
  8
0
  6
Continuous
 62
     7
370
    25
100
AcDbCircle
 10
-70.0
 20
20.6
 30
0.0
 40
6.599999999999984
100
AcDbArc
 50
90.0
 51
180.0
  0
ARC
  5
149
330
F6
100
AcDbEntity
  8
0
  6
Continuous
 62
     7
370
    25
100
AcDbCircle
 10
-70.0
 20
20.6
 30
0.0
 40
13.40000000000001
100
AcDbArc
 50
90.0
 51
180.0
  0
ARC
  5
14A
330
F6
100
AcDbEntity
  8
0
  6
Continuous
 62
     7
370
    25
100
AcDbCircle
 10
70.0
 20
20.6
 30
0.0
 40
6.600000000000009
100
AcDbArc
 50
0.0
 51
90.0
  0
ARC
  5
14B
330
F6
100
AcDbEntity
  8
0
  6
Continuous
 62
     7
370
    25
100
AcDbCircle
 10
70.0
 20
20.6
 30
0.0
 40
13.40000000000001
100
AcDbArc
 50
0.0
 51
90.0
  0
VIEWPORT
  5
2B3
330
F6
100
AcDbEntity
  8
0
100
AcDbViewport
 10
0.0
 20
0.0
 30
0.0
 40
205.6
 41
156.0
 68
     1
 69
     1
 12
0.0
 22
0.0
 13
0.0
 23
0.0
 14
10.0
 24
10.0
 15
10.0
 25
10.0
 16
0.0
 26
0.0
 36
1.0
 17
0.0
 27
0.0
 37
0.0
 42
50.0
 43
0.0
 44
0.0
 45
134.6638132296
 50
0.0
 51
0.0
 72
   100
 90
   557152
  1

281
     0
 71
     1
 74
     0
110
0.0
120
0.0
130
0.0
111
1.0
121
0.0
131
0.0
112
0.0
122
1.0
132
0.0
 79
     0
146
0.0
  0
ENDBLK
  5
F9
330
F6
100
AcDbEntity
  8
0
100
AcDbBlockEnd
  0
BLOCK
  5
14E
330
14C
100
AcDbEntity
  8
0
100
AcDbBlockBegin
  2
*Paper_Space2
 70
     0
 10
0.0
 20
0.0
 30
0.0
  3
*Paper_Space2
  1

  0
LINE
  5
163
330
14C
100
AcDbEntity
  8
0
  6
Continuous
 62
     7
370
    25
100
AcDbLine
 10
-7.0
 20
0.3
 30
0.0
 11
-6.7
 21
0.0
 31
0.0
  0
LINE
  5
164
330
14C
100
AcDbEntity
  8
0
  6
Continuous
 62
     7
370
    25
100
AcDbLine
 10
6.7
 20
0.0
 30
0.0
 11
7.0
 21
0.3
 31
0.0
  0
LINE
  5
165
330
14C
100
AcDbEntity
  8
0
  6
Continuous
 62
     7
370
    25
100
AcDbLine
 10
7.0
 20
4.7
 30
0.0
 11
6.7
 21
5.0
 31
0.0
  0
LINE
  5
166
330
14C
100
AcDbEntity
  8
0
  6
Continuous
 62
     7
370
    25
100
AcDbLine
 10
-6.7
 20
5.0
 30
0.0
 11
-7.0
 21
4.7
 31
0.0
  0
LINE
  5
167
330
14C
100
AcDbEntity
  8
0
  6
Continuous
 62
     7
370
    25
100
AcDbLine
 10
7.0
 20
0.3
 30
0.0
 11
7.0
 21
4.7
 31
0.0
  0
LINE
  5
168
330
14C
100
AcDbEntity
  8
0
  6
Continuous
 62
     7
370
    25
100
AcDbLine
 10
-7.0
 20
4.7
 30
0.0
 11
-7.0
 21
0.3
 31
0.0
  0
LINE
  5
169
330
14C
100
AcDbEntity
  8
0
  6
Continuous
 62
     7
370
    25
100
AcDbLine
 10
3.7
 20
5.0
 30
0.0
 11
3.4
 21
5.3
 31
0.0
  0
LINE
  5
16A
330
14C
100
AcDbEntity
  8
0
  6
Continuous
 62
     7
370
    25
100
AcDbLine
 10
-3.4
 20
5.3
 30
0.0
 11
-3.7
 21
5.0
 31
0.0
  0
LINE
  5
16B
330
14C
100
AcDbEntity
  8
0
  6
Continuous
 62
     7
370
    25
100
AcDbLine
 10
-3.4
 20
30.6
 30
0.0
 11
-3.4
 21
5.3
 31
0.0
  0
LINE
  5
16C
330
14C
100
AcDbEntity
  8
0
  6
Continuous
 62
     7
370
    25
100
AcDbLine
 10
3.4
 20
5.3
 30
0.0
 11
3.4
 21
30.6
 31
0.0
  0
LINE
  5
16D
330
14C
100
AcDbEntity
  8
0
  6
Continuous
 62
     7
370
    25
100
AcDbLine
 10
6.7
 20
0.0
 30
0.0
 11
-6.7
 21
0.0
 31
0.0
  0
LINE
  5
16E
330
14C
100
AcDbEntity
  8
0
  6
Continuous
 62
     7
370
    25
100
AcDbLine
 10
-7.0
 20
0.3
 30
0.0
 11
7.0
 21
0.3
 31
0.0
  0
LINE
  5
16F
330
14C
100
AcDbEntity
  8
0
  6
Continuous
 62
     7
370
    25
100
AcDbLine
 10
7.0
 20
4.7
 30
0.0
 11
-7.0
 21
4.7
 31
0.0
  0
LINE
  5
170
330
14C
100
AcDbEntity
  8
0
  6
Continuous
 62
     7
370
    25
100
AcDbLine
 10
-6.7
 20
5.0
 30
0.0
 11
6.7
 21
5.0
 31
0.0
  0
LINE
  5
171
330
14C
100
AcDbEntity
  8
0
  6
Continuous
 62
     7
370
    25
100
AcDbLine
 10
-3.4
 20
5.3
 30
0.0
 11
3.4
 21
5.3
 31
0.0
  0
LINE
  5
172
330
14C
100
AcDbEntity
  8
0
  6
Continuous
 62
     8
370
    25
100
AcDbLine
 10
-3.4
 20
20.6
 30
0.0
 11
3.4
 21
20.6
 31
0.0
  0
ARC
  5
173
330
14C
100
AcDbEntity
  8
0
  6
Continuous
 62
     7
370
    25
100
AcDbCircle
 10
0.0
 20
30.6
 30
0.0
 40
3.4
100
AcDbArc
 50
0.0
 51
180.0
  0
VIEWPORT
  5
2B5
330
14C
100
AcDbEntity
  8
0
100
AcDbViewport
 10
0.0
 20
0.0
 30
0.0
 40
205.6
 41
156.0
 68
     1
 69
     1
 12
0.0
 22
0.0
 13
0.0
 23
0.0
 14
10.0
 24
10.0
 15
10.0
 25
10.0
 16
0.0
 26
0.0
 36
1.0
 17
0.0
 27
0.0
 37
0.0
 42
50.0
 43
0.0
 44
0.0
 45
134.6638132296
 50
0.0
 51
0.0
 72
   100
 90
   557152
  1

281
     0
 71
     1
 74
     0
110
0.0
120
0.0
130
0.0
111
1.0
121
0.0
131
0.0
112
0.0
122
1.0
132
0.0
 79
     0
146
0.0
  0
ENDBLK
  5
14F
330
14C
100
AcDbEntity
  8
0
100
AcDbBlockEnd
  0
BLOCK
  5
176
330
174
100
AcDbEntity
  8
0
100
AcDbBlockBegin
  2
*Paper_Space3
 70
     0
 10
0.0
 20
0.0
 30
0.0
  3
*Paper_Space3
  1

  0
LINE
  5
18C
330
174
100
AcDbEntity
  8
0
  6
Continuous
 62
     7
370
    25
100
AcDbLine
 10
80.0
 20
3.4
 30
0.0
 11
-80.0
 21
3.4
 31
0.0
  0
LINE
  5
18D
330
174
100
AcDbEntity
  8
0
  6
Continuous
 62
     7
370
    25
100
AcDbLine
 10
-80.0
 20
-3.4
 30
0.0
 11
80.0
 21
-3.4
 31
0.0
  0
LINE
  5
18E
330
174
100
AcDbEntity
  8
0
  6
Continuous
 62
     8
370
    25
100
AcDbLine
 10
70.0
 20
-3.4
 30
0.0
 11
70.0
 21
3.4
 31
0.0
  0
LINE
  5
18F
330
174
100
AcDbEntity
  8
0
  6
Continuous
 62
     8
370
    25
100
AcDbLine
 10
-70.0
 20
-3.4
 30
0.0
 11
-70.0
 21
3.4
 31
0.0
  0
ARC
  5
190
330
174
100
AcDbEntity
  8
0
  6
Continuous
 62
     7
370
    25
100
AcDbCircle
 10
80.0
 20
0.0
 30
0.0
 40
3.399999999999999
100
AcDbArc
 50
270.0
 51
90.0
  0
ARC
  5
191
330
174
100
AcDbEntity
  8
0
  6
Continuous
 62
     7
370
    25
100
AcDbCircle
 10
-80.0
 20
0.0
 30
0.0
 40
3.399999999999999
100
AcDbArc
 50
90.0
 51
270.0
  0
ARC
  5
192
330
174
100
AcDbEntity
  8
0
  6
Continuous
 62
     7
370
    25
100
AcDbCircle
 10
80.0
 20
0.0
 30
0.0
 40
3.700000000000017
100
AcDbArc
 50
246.768543495
 51
113.231456505
  0
ARC
  5
193
330
174
100
AcDbEntity
  8
0
  6
Continuous
 62
     7
370
    25
100
AcDbCircle
 10
-80.0
 20
0.0
 30
0.0
 40
6.69999999999999
100
AcDbArc
 50
30.4949678748
 51
329.5050321252
  0
ARC
  5
194
330
174
100
AcDbEntity
  8
0
  6
Continuous
 62
     7
370
    25
100
AcDbCircle
 10
-80.0
 20
0.0
 30
0.0
 40
7.000000000000029
100
AcDbArc
 50
29.059281068
 51
330.940718932
  0
ARC
  5
195
330
174
100
AcDbEntity
  8
0
  6
Continuous
 62
     7
370
    25
100
AcDbCircle
 10
80.0
 20
0.0
 30
0.0
 40
6.699999999999994
100
AcDbArc
 50
210.4949678748
 51
149.5050321252
  0
ARC
  5
196
330
174
100
AcDbEntity
  8
0
  6
Continuous
 62
     7
370
    25
100
AcDbCircle
 10
80.0
 20
0.0
 30
0.0
 40
7.000000000000038
100
AcDbArc
 50
209.059281068
 51
150.940718932
  0
VIEWPORT
  5
2B7
330
174
100
AcDbEntity
  8
0
100
AcDbViewport
 10
0.0
 20
0.0
 30
0.0
 40
205.6
 41
156.0
 68
     1
 69
     1
 12
0.0
 22
0.0
 13
0.0
 23
0.0
 14
10.0
 24
10.0
 15
10.0
 25
10.0
 16
0.0
 26
0.0
 36
1.0
 17
0.0
 27
0.0
 37
0.0
 42
50.0
 43
0.0
 44
0.0
 45
134.6638132296
 50
0.0
 51
0.0
 72
   100
 90
   557152
  1

281
     0
 71
     1
 74
     0
110
0.0
120
0.0
130
0.0
111
1.0
121
0.0
131
0.0
112
0.0
122
1.0
132
0.0
 79
     0
146
0.0
  0
ENDBLK
  5
177
330
174
100
AcDbEntity
  8
0
100
AcDbBlockEnd
  0
BLOCK
  5
199
330
197
100
AcDbEntity
  8
0
100
AcDbBlockBegin
  2
*Paper_Space4
 70
     0
 10
0.0
 20
0.0
 30
0.0
  3
*Paper_Space4
  1

  0
SPLINE
  5
19B
330
197
100
AcDbEntity
  8
0
  6
Continuous
 62
     7
370
    25
100
AcDbSpline
210
0.0
220
0.0
230
1.0
 70
     8
 71
     3
 72
    23
 73
    19
 74
     0
 42
0.000000001
 43
0.00000001
 40
0.0
 40
0.0
 40
0.0
 40
0.0
 40
0.0360029104973209
 40
0.1005314955091581
 40
0.1649662749647411
 40
0.2292626593219199
 40
0.2933322487057426
 40
0.3571717630499558
 40
0.4208281695071086
 40
0.4843758332361116
 40
0.5479033781614864
 40
0.6114984224282776
 40
0.6752361498951902
 40
0.7392166390206244
 40
0.803535816699222
 40
0.8682758836986999
 40
0.9334868478742634
 40
1.0
 40
1.0
 40
1.0
 40
1.0
 10
59.96854249492371
 20
-15.83558374806194
 30
0.0
 10
59.96564680347986
 20
-15.63183506182767
 30
0.0
 10
59.95756111853488
 20
-15.06290438782893
 30
0.0
 10
59.87187097397553
 20
-14.11127041380291
 30
0.0
 10
59.68889953423199
 20
-12.98255146240402
 30
0.0
 10
59.42106436914599
 20
-11.84786647291863
 30
0.0
 10
59.07410803383025
 20
-10.71620864849876
 30
0.0
 10
58.65195568766602
 20
-9.595861510437905
 30
0.0
 10
58.15903771846583
 20
-8.494600527999246
 30
0.0
 10
57.59954467173384
 20
-7.419784667349521
 30
0.0
 10
56.97764717554689
 20
-6.378628400270807
 30
0.0
 10
56.29751010064386
 20
-5.378367318253971
 30
0.0
 10
55.56324536489143
 20
-4.426079451635069
 30
0.0
 10
54.77875842848184
 20
-3.528942772205314
 30
0.0
 10
53.9479013273416
 20
-2.693288754928295
 30
0.0
 10
53.07362707372622
 20
-1.928581148883182
 30
0.0
 10
52.15793813781217
 20
-1.230735464728858
 30
0.0
 10
51.51964040952394
 20
-0.8405767802936951
 30
0.0
 10
51.19733652853956
 20
-0.6435689379965872
 30
0.0
  0
SPLINE
  5
19C
330
197
100
AcDbEntity
  8
0
  6
Continuous
 62
     7
370
    25
100
AcDbSpline
210
0.0
220
0.0
230
1.0
 70
     8
 71
     3
 72
    23
 73
    19
 74
     0
 42
0.000000001
 43
0.00000001
 40
0.0
 40
0.0
 40
0.0
 40
0.0
 40
0.0343787541281941
 40
0.0996778690542021
 40
0.1657854270265825
 40
0.2328505897451171
 40
0.3007716083556969
 40
0.3693907819604292
 40
0.4385224509695166
 40
0.5079688708411555
 40
0.5775282638447795
 40
0.6469572586922225
 40
0.716030174794418
 40
0.7845538560660734
 40
0.8523496619559097
 40
0.919269203165762
 40
0.9811720998767831
 40
1.0
 40
1.0
 40
1.0
 40
1.0
 10
47.79761283757694
 20
-6.532701202185218
 30
0.0
 10
47.88170965790143
 20
-6.582843038815033
 30
0.0
 10
48.12554024620378
 20
-6.728224439405836
 30
0.0
 10
48.55565645952476
 20
-7.03099082066443
 30
0.0
 10
49.08344070096588
 20
-7.465403956117163
 30
0.0
 10
49.62040223809644
 20
-7.978151386559207
 30
0.0
 10
50.15334193060405
 20
-8.562067572659677
 30
0.0
 10
50.670152232815
 20
-9.209088046641584
 30
0.0
 10
51.15932835139117
 20
-9.908625183831361
 30
0.0
 10
51.61056273717401
 20
-10.64856121032237
 30
0.0
 10
52.01479495568849
 20
-11.41525122492428
 30
0.0
 10
52.36451475897979
 20
-12.19389491858688
 30
0.0
 10
52.65407258335673
 20
-12.96896232240102
 30
0.0
 10
52.87987984844676
 20
-13.72456955303589
 30
0.0
 10
53.04086040714942
 20
-14.44516849016494
 30
0.0
 10
53.13579065093043
 20
-15.10083929658445
 30
0.0
 10
53.16628647011268
 20
-15.55463477515068
 30
0.0
 10
53.16811585002862
 20
-15.78245248616972
 30
0.0
 10
53.16854249492371
 20
-15.83558374806194
 30
0.0
  0
SPLINE
  5
1A7
330
197
100
AcDbEntity
  8
0
  6
Continuous
 62
     7
370
    25
100
AcDbSpline
210
0.0
220
0.0
230
1.0
 70
     8
 71
     3
 72
    26
 73
    22
 74
     0
 42
0.000000001
 43
0.00000001
 40
0.0
 40
0.0
 40
0.0
 40
0.0
 40
0.0327656166623374
 40
0.0921521682211694
 40
0.1514068190992915
 40
0.2097613890679
 40
0.2667071456792308
 40
0.3219439073225377
 40
0.3754459887366008
 40
0.4274131023225219
 40
0.4781789252670297
 40
0.5281394380663947
 40
0.5777056979525004
 40
0.6271819338420433
 40
0.6769980631557652
 40
0.7275628951772228
 40
0.7792378721472036
 40
0.8322931222034217
 40
0.886849199001281
 40
0.9428274955059162
 40
1.0
 40
1.0
 40
1.0
 40
1.0
 10
-47.79761283757696
 20
56.50499888959313
 30
0.0
 10
-47.97544895529091
 20
56.60426593506456
 30
0.0
 10
-48.4756069106336
 20
56.88345108110874
 30
0.0
 10
-49.31656461613853
 20
57.2639144892192
 30
0.0
 10
-50.31818360822472
 20
57.60707220199291
 30
0.0
 10
-51.32165892358027
 20
57.83200547434828
 30
0.0
 10
-52.31052057896009
 20
57.93611621616905
 30
0.0
 10
-53.27069504791142
 20
57.91946744244109
 30
0.0
 10
-54.19003151413733
 20
57.78636735332727
 30
0.0
 10
-55.0589946681617
 20
57.54331325136478
 30
0.0
 10
-55.87029138362582
 20
57.19786935630391
 30
0.0
 10
-56.6183228551367
 20
56.7577475984024
 30
0.0
 10
-57.29829443693982
 20
56.23063840493235
 30
0.0
 10
-57.90677798045738
 20
55.62356675054068
 30
0.0
 10
-58.44142910114937
 20
54.94235399927941
 30
0.0
 10
-58.90078839292165
 20
54.19078452844936
 30
0.0
 10
-59.28293788656659
 20
53.37133078503648
 30
0.0
 10
-59.58591133905542
 20
52.4862067694552
 30
0.0
 10
-59.80448365699137
 20
51.53781757258942
 30
0.0
 10
-59.94299091296286
 20
50.53318638142417
 30
0.0
 10
-59.95996558332456
 20
49.83157389487606
 30
0.0
 10
-59.96854249492372
 20
49.47706519775487
 30
0.0
  0
SPLINE
  5
1A8
330
197
100
AcDbEntity
  8
0
  6
Continuous
 62
     7
370
    25
100
AcDbSpline
210
0.0
220
0.0
230
1.0
 70
     8
 71
     3
 72
    15
 73
    11
 74
     0
 42
0.000000001
 43
0.00000001
 40
0.0
 40
0.0
 40
0.0
 40
0.0
 40
0.0773580085115922
 40
0.2225056167198531
 40
0.3668679918761857
 40
0.5117577371097923
 40
0.6594411413542621
 40
0.8145430550054948
 40
0.985848902058676
 40
1.0
 40
1.0
 40
1.0
 40
1.0
 10
-53.16854249492373
 20
49.47706519775487
 30
0.0
 10
-53.16717229895553
 20
49.57059946314116
 30
0.0
 10
-53.16323119053257
 20
49.83963300995354
 30
0.0
 10
-53.12258359400877
 20
50.22342268892325
 30
0.0
 10
-53.0456833620915
 20
50.58880955714874
 30
0.0
 10
-52.95403486463167
 20
50.85394124041424
 30
0.0
 10
-52.86720837303926
 20
51.02245861115328
 30
0.0
 10
-52.80686976023254
 20
51.10320581215737
 30
0.0
 10
-52.78935283785513
 20
51.11590506982104
 30
0.0
 10
-52.79250901287759
 20
51.1140112762992
 30
0.0
 10
-52.7927498415069
 20
51.11386677236807
 30
0.0
  0
SPLINE
  5
1A9
330
197
100
AcDbEntity
  8
0
  6
Continuous
 62
     7
370
    25
100
AcDbSpline
210
0.0
220
0.0
230
1.0
 70
     8
 71
     3
 72
    14
 73
    10
 74
     0
 42
0.000000001
 43
0.00000001
 40
0.0
 40
0.0
 40
0.0
 40
0.0
 40
0.1534329412869033
 40
0.3123949826076948
 40
0.458333011508073
 40
0.6116951690008009
 40
0.7581232291264749
 40
0.902799175529549
 40
1.0
 40
1.0
 40
1.0
 40
1.0
 10
-52.79734677015621
 20
51.10971706508554
 30
0.0
 10
-52.79692380005184
 20
51.11029864242322
 30
0.0
 10
-52.79606261771846
 20
51.11148275478377
 30
0.0
 10
-52.7112984324387
 20
51.12622034821716
 30
0.0
 10
-52.53796643645231
 20
51.12263392661966
 30
0.0
 10
-52.2726278502969
 20
51.07845415799352
 30
0.0
 10
-51.92032109092024
 20
50.96945366036051
 30
0.0
 10
-51.5542326635366
 20
50.8133025881454
 30
0.0
 10
-51.29964525978096
 20
50.67246410816966
 30
0.0
 10
-51.19733652853957
 20
50.6158666254045
 30
0.0
  0
LWPOLYLINE
  5
1B2
330
197
100
AcDbEntity
  8
0
  6
Continuous
 62
     7
370
    25
100
AcDbPolyline
 90
       14
 70
   128
 43
0.0
 10
54.1643794389
 20
-29.71655196
 10
54.6628166473
 20
-29.954131538
 10
55.2301317532
 20
-30.1329622733
 10
55.8458205104
 20
-30.2465807572
 10
56.4876303233
 20
-30.2908805218
 10
57.1323645128
 20
-30.264260458
 10
57.7567207056
 20
-30.1676826844
 10
58.338133042
 20
-30.0046377733
 10
58.8555877655
 20
-29.7810185926
 10
59.2903827141
 20
-29.5049073221
 10
59.6268032654
 20
-29.1862833426
 10
59.8526903043
 20
-28.8366625548
 10
59.9598796846
 20
-28.468681165
 10
59.9685424949
 20
-28.3286581699
  0
LWPOLYLINE
  5
1B5
330
197
100
AcDbEntity
  8
0
  6
Continuous
 62
     7
370
    25
100
AcDbPolyline
 90
       25
 70
   128
 43
0.0
 10
61.5190942403
 20
-25.9616186404
 10
61.8378432461
 20
-26.1583904181
 10
62.405025789
 20
-26.5875719476
 10
62.8680561491
 20
-27.0565659161
 10
63.2186715389
 20
-27.5570031151
 10
63.4506152183
 20
-28.0799532309
 10
63.559748147
 20
-28.6160842062
 10
63.5441228452
 20
-29.1558287713
 10
63.4040181467
 20
-29.6895551714
 10
63.1419342234
 20
-30.2077390464
 10
62.7625479689
 20
-30.7011333927
 10
62.2726295399
 20
-31.1609335766
 10
61.6809215426
 20
-31.5789344528
 10
60.99798302
 20
-31.9476767858
 10
60.2360010263
 20
-32.2605803599
 10
59.4085731482
 20
-32.5120614035
 10
58.5304648558
 20
-32.6976322314
 10
57.6173460125
 20
-32.8139813277
 10
56.6855112455
 20
-32.8590324401
 10
55.7515891684
 20
-32.8319816303
 10
54.8322456427
 20
-32.7333116209
 10
53.9438863755
 20
-32.5647831803
 10
53.102364159
 20
-32.3294037026
 10
52.322695977
 20
-32.0313735402
 10
51.6187950266
 20
-31.6760110484
  0
LWPOLYLINE
  5
1B6
330
197
100
AcDbEntity
  8
0
  6
Continuous
 62
     7
370
    25
100
AcDbPolyline
 90
       26
 70
   128
 43
0.0
 10
51.830927061
 20
-31.3085875881
 10
52.5201586851
 20
-31.6555252718
 10
53.2848040398
 20
-31.9450528992
 10
54.1106192289
 20
-32.1717771183
 10
54.9822208778
 20
-32.3314744861
 10
55.883372697
 20
-32.4211701425
 10
56.7972879332
 20
-32.4391932274
 10
57.7069420746
 20
-32.3852080047
 10
58.5953899858
 20
-32.260220117
 10
59.4460815632
 20
-32.0665578521
 10
60.2431700323
 20
-31.8078287716
 10
60.971807143
 20
-31.4888525088
 10
61.6184197646
 20
-31.1155709879
 10
62.1709627274
 20
-30.6949377373
 10
62.6191432015
 20
-30.2347883587
 10
62.9546124326
 20
-29.7436945642
 10
63.1711212636
 20
-29.2308045023
 10
63.2646365448
 20
-28.7056723442
 10
63.2334162633
 20
-28.1780803085
 10
63.0780419939
 20
-27.6578564365
 10
62.8014080653
 20
-27.1546915147
 10
62.4086676441
 20
-26.6779585537
 10
61.9071367414
 20
-26.2365381863
 10
61.3061579289
 20
-25.8386532389
 10
60.6169263047
 20
-25.4917155552
 10
59.9685424949
 20
-25.2408149065
  0
LWPOLYLINE
  5
1B7
330
197
100
AcDbEntity
  8
0
  6
Continuous
 62
     7
370
    25
100
AcDbPolyline
 90
       15
 70
   128
 43
0.0
 10
53.1685424949
 20
-25.2408149065
 10
52.8939149576
 20
-25.3394120553
 10
52.1652778468
 20
-25.6583883181
 10
51.5186652252
 20
-26.0316698391
 10
50.9661222624
 20
-26.4523030897
 10
50.5179417883
 20
-26.9124524683
 10
50.1824725573
 20
-27.4035462627
 10
49.9659637262
 20
-27.9164363247
 10
49.8724484451
 20
-28.4415684828
 10
49.9036687266
 20
-28.9691605185
 10
50.059042996
 20
-29.4893843905
 10
50.3356769246
 20
-29.9925493122
 10
50.7284173457
 20
-30.4692822733
 10
51.2299482484
 20
-30.9107026407
 10
51.830927061
 20
-31.3085875881
  0
LWPOLYLINE
  5
1B8
330
197
100
AcDbEntity
  8
0
  6
Continuous
 62
     7
370
    25
100
AcDbPolyline
 90
       19
 70
   128
 43
0.0
 10
51.6187950266
 20
-35.2687906207
 10
52.322695977
 20
-35.6241531125
 10
53.102364159
 20
-35.9221832749
 10
53.9438863755
 20
-36.1575627526
 10
54.8322456427
 20
-36.3260911932
 10
55.7515891684
 20
-36.4247612026
 10
56.6855112455
 20
-36.4518120124
 10
57.6173460125
 20
-36.4067609
 10
58.5304648558
 20
-36.2904118037
 10
59.4085731482
 20
-36.1048409758
 10
60.2360010263
 20
-35.8533599322
 10
60.99798302
 20
-35.5404563581
 10
61.6809215426
 20
-35.1717140251
 10
62.2726295399
 20
-34.7537131489
 10
62.7625479689
 20
-34.293912965
 10
63.1419342234
 20
-33.8005186187
 10
63.4040181467
 20
-33.2823347437
 10
63.5441228452
 20
-32.7486083436
 10
63.5685424949
 20
-32.4113622293
  0
LWPOLYLINE
  5
1BA
330
197
100
AcDbEntity
  8
0
  6
Continuous
 62
     7
370
    25
100
AcDbPolyline
 90
        8
 70
   128
 43
0.0
 10
53.9522474045
 20
-30.0839754204
 10
53.5160518389
 20
-29.780731752
 10
53.1838051815
 20
-29.4363813547
 10
52.9668216938
 20
-29.0626506684
 10
52.8724904882
 20
-28.6722666432
 10
52.9040239007
 20
-28.2785233391
 10
53.0603480988
 20
-27.8948292118
 10
53.1685424949
 20
-27.7310967352
  0
LWPOLYLINE
  5
1BB
330
197
100
AcDbEntity
  8
0
  6
Continuous
 62
     7
370
    25
100
AcDbPolyline
 90
       16
 70
   128
 43
0.0
 10
59.9685424949
 20
-27.7310967352
 10
60.1702632961
 20
-28.0845901586
 10
60.2645945017
 20
-28.4749741837
 10
60.2330610892
 20
-28.8687174879
 10
60.076736891
 20
-29.2524116151
 10
59.8009453403
 20
-29.6129903221
 10
59.4150781876
 20
-29.9381745335
 10
58.9322756758
 20
-30.2168904909
 10
58.3689790656
 20
-30.4396468566
 10
57.7443707474
 20
-30.5988579299
 10
57.0797210082
 20
-30.6891019686
 10
56.3976636979
 20
-30.7073058202
 10
55.7214254601
 20
-30.6528495743
 10
55.0740347769
 20
-30.5275876731
 10
54.4775377616
 20
-30.3357857605
 10
53.9522474045
 20
-30.0839754204
  0
LWPOLYLINE
  5
1BD
330
197
100
AcDbEntity
  8
0
  6
Continuous
 62
     7
370
    25
100
AcDbPolyline
 90
       18
 70
   128
 43
0.0
 10
-59.9685424949
 20
36.7390285323
 10
-59.9444973028
 20
36.5060093417
 10
-59.8070991183
 20
36.1413890767
 10
-59.5526510595
 20
35.7983690587
 10
-59.1903495421
 20
35.489346925
 10
-58.7332890869
 20
35.2254915406
 10
-58.1979890498
 20
35.0163393265
 10
-57.6037965686
 20
34.8694495888
 10
-56.972187308
 20
34.7901313052
 10
-56.325989272
 20
34.7812512452
 10
-55.6885577416
 20
34.8431303573
 10
-55.0829311529
 20
34.9735321692
 10
-54.5309984288
 20
35.1677436196
 10
-54.052707856
 20
35.4187454006
 10
-53.6653461021
 20
35.7174656541
 10
-53.3829134299
 20
36.0531078516
 10
-53.2156176923
 20
36.4135410096
 10
-53.1685424949
 20
36.7390285323
  0
LWPOLYLINE
  5
1BE
330
197
100
AcDbEntity
  8
0
  6
Continuous
 62
     7
370
    25
100
AcDbPolyline
 90
       37
 70
   128
 43
0.0
 10
-51.6187950266
 20
39.3514946802
 10
-51.0032224371
 20
38.945141311
 10
-50.4869631159
 20
38.49504845
 10
-50.0792297228
 20
38.0092480149
 10
-49.7872982698
 20
37.4964091261
 10
-49.6163782806
 20
36.9656834055
 10
-49.5695198266
 20
36.4265416664
 10
-49.6475590979
 20
35.8886049057
 10
-49.8491034819
 20
35.3614726177
 10
-50.1705564143
 20
34.8545514907
 10
-50.6061815598
 20
34.376887544
 10
-51.1482051775
 20
33.9370047022
 10
-51.786954843
 20
33.542752685
 10
-52.5110320534
 20
33.201166929
 10
-53.3075156338
 20
32.9183430401
 10
-54.1621923158
 20
32.6993280172
 10
-55.0598103737
 20
32.5480301887
 10
-55.9843517921
 20
32.4671494679
 10
-56.9193181074
 20
32.4581291732
 10
-57.8480248236
 20
32.5211302719
 10
-58.7538991474
 20
32.6550285079
 10
-59.6207757299
 20
32.8574344641
 10
-60.433185138
 20
33.1247362013
 10
-61.1766299066
 20
33.4521637138
 10
-61.8378432461
 20
33.8338740498
 10
-62.405025789
 20
34.2630555793
 10
-62.8680561491
 20
34.7320495478
 10
-63.2186715389
 20
35.2324867468
 10
-63.4506152183
 20
35.7554368626
 10
-63.559748147
 20
36.291567838
 10
-63.5441228452
 20
36.831312403
 10
-63.4040181467
 20
37.3650388032
 10
-63.1419342234
 20
37.8832226782
 10
-62.7625479689
 20
38.3766170245
 10
-62.2726295399
 20
38.8364172083
 10
-61.6809215426
 20
39.2544180845
 10
-61.5190942403
 20
39.3510303054
  0
LWPOLYLINE
  5
1BF
330
197
100
AcDbEntity
  8
0
  6
Continuous
 62
     7
370
    25
100
AcDbPolyline
 90
        3
 70
   128
 43
0.0
 10
-51.830927061
 20
39.4739957069
 10
-52.5201586851
 20
39.8209333906
 10
-53.1685424949
 20
40.0718340393
  0
LWPOLYLINE
  5
1C0
330
197
100
AcDbEntity
  8
0
  6
Continuous
 62
     7
370
    25
100
AcDbPolyline
 90
       39
 70
   128
 43
0.0
 10
-59.9685424949
 20
40.0718340393
 10
-60.2431700323
 20
39.9732368905
 10
-60.971807143
 20
39.6542606277
 10
-61.6184197646
 20
39.2809791067
 10
-62.1709627274
 20
38.8603458562
 10
-62.6191432015
 20
38.4001964775
 10
-62.9546124326
 20
37.9091026831
 10
-63.1711212636
 20
37.3962126211
 10
-63.2646365448
 20
36.871080463
 10
-63.2334162633
 20
36.3434884273
 10
-63.0780419939
 20
35.8232645554
 10
-62.8014080653
 20
35.3200996336
 10
-62.4086676441
 20
34.8433666725
 10
-61.9071367414
 20
34.4019463051
 10
-61.3061579289
 20
34.0040613577
 10
-60.6169263047
 20
33.657123674
 10
-59.85228095
 20
33.3675960467
 10
-59.026465761
 20
33.1408718275
 10
-58.154864112
 20
32.9811744598
 10
-57.2537122928
 20
32.8914788033
 10
-56.3397970567
 20
32.8734557184
 10
-55.4301429152
 20
32.9274409411
 10
-54.541695004
 20
33.0524288288
 10
-53.6910034266
 20
33.2460910937
 10
-52.8939149576
 20
33.5048201742
 10
-52.1652778468
 20
33.823796437
 10
-51.5186652252
 20
34.1970779579
 10
-50.9661222624
 20
34.6177112085
 10
-50.5179417883
 20
35.0778605872
 10
-50.1824725573
 20
35.5689543816
 10
-49.9659637262
 20
36.0818444435
 10
-49.8724484451
 20
36.6069766016
 10
-49.9036687266
 20
37.1345686374
 10
-50.059042996
 20
37.6547925093
 10
-50.3356769246
 20
38.1579574311
 10
-50.7284173457
 20
38.6346903922
 10
-51.2299482484
 20
39.0761107595
 10
-51.830927061
 20
39.4739957069
 10
-51.830927061
 20
39.4739957069
  0
LWPOLYLINE
  5
1C1
330
197
100
AcDbEntity
  8
0
  6
Continuous
 62
     7
370
    25
100
AcDbPolyline
 90
       26
 70
   128
 43
0.0
 10
-63.5685424949
 20
32.9012867165
 10
-63.559748147
 20
32.6987882657
 10
-63.4506152183
 20
32.1626572903
 10
-63.2186715389
 20
31.6397071745
 10
-62.8680561491
 20
31.1392699755
 10
-62.405025789
 20
30.670276007
 10
-61.8378432461
 20
30.2410944775
 10
-61.1766299066
 20
29.8593841415
 10
-60.433185138
 20
29.531956629
 10
-59.6207757299
 20
29.2646548918
 10
-58.7538991474
 20
29.0622489356
 10
-57.8480248236
 20
28.9283506996
 10
-56.9193181074
 20
28.8653496009
 10
-55.9843517921
 20
28.8743698956
 10
-55.0598103737
 20
28.9552506164
 10
-54.1621923158
 20
29.1065484449
 10
-53.3075156338
 20
29.3255634678
 10
-52.5110320534
 20
29.6083873567
 10
-51.786954843
 20
29.9499731127
 10
-51.1482051775
 20
30.3442251299
 10
-50.6061815598
 20
30.7841079717
 10
-50.1705564143
 20
31.2617719184
 10
-49.8491034819
 20
31.7686930454
 10
-49.6475590979
 20
32.2958253334
 10
-49.5695198266
 20
32.8337620941
 10
-49.5685424949
 20
32.9012867165
  0
LWPOLYLINE
  5
1C3
330
197
100
AcDbEntity
  8
0
  6
Continuous
 62
     8
370
    25
100
AcDbPolyline
 90
       18
 70
   128
 43
0.0
 10
53.1685572718
 20
-15.8413705284
 10
53.192587687
 20
-16.0686029387
 10
53.3299858715
 20
-16.4332232037
 10
53.5844339304
 20
-16.7762432217
 10
53.9467354478
 20
-17.0852653554
 10
54.4037959029
 20
-17.3491207398
 10
54.9390959401
 20
-17.5582729539
 10
55.5332884212
 20
-17.7051626916
 10
56.1648976819
 20
-17.7844809752
 10
56.8110957178
 20
-17.7933610352
 10
57.4485272483
 20
-17.7314819231
 10
58.054153837
 20
-17.6010801112
 10
58.6060865611
 20
-17.4068686608
 10
59.0843771338
 20
-17.1558668798
 10
59.4717388878
 20
-16.8571466263
 10
59.7541715599
 20
-16.5215044288
 10
59.9214672976
 20
-16.1610712708
 10
59.9685424696
 20
-15.8353440798
  0
LWPOLYLINE
  5
1C4
330
197
100
AcDbEntity
  8
0
  6
Continuous
 62
     8
370
    25
100
AcDbPolyline
 90
       18
 70
   128
 43
0.0
 10
47.7930560063
 20
-6.5300564601
 10
47.6076748726
 20
-6.3952502166
 10
47.3605693345
 20
-6.0938905004
 10
47.1906971234
 20
-5.7019662542
 10
47.1041978635
 20
-5.2336426415
 10
47.1041978635
 20
-4.7058460978
 10
47.1906971234
 20
-4.1376525654
 10
47.3605693345
 20
-3.549598039
 10
47.6076748726
 20
-2.9629363413
 10
47.9230826997
 20
-2.3988709546
 10
48.295393155
 20
-1.8777886717
 10
48.7111499688
 20
-1.4185227638
 10
49.1553266066
 20
-1.0376722975
 10
49.6118693672
 20
-0.749002201
 10
50.0642776059
 20
-0.5629457637
 10
50.4962001102
 20
-0.48622755
 10
50.8920260754
 20
-0.521620356
 10
51.1976382908
 20
-0.6437432035
  0
LWPOLYLINE
  5
1C5
330
197
100
AcDbEntity
  8
0
  6
Continuous
 62
     8
370
    25
100
AcDbPolyline
 90
       18
 70
   128
 43
0.0
 10
-51.1973365285
 20
50.6158666254
 10
-51.3872744935
 20
50.753317611
 10
-51.6343800316
 20
51.0546773272
 10
-51.8042522427
 20
51.4466015734
 10
-51.8907515026
 20
51.9149251861
 10
-51.8907515026
 20
52.4427217298
 10
-51.8042522427
 20
53.0109152621
 10
-51.6343800316
 20
53.5989697886
 10
-51.3872744935
 20
54.1856314863
 10
-51.0718666665
 20
54.749696873
 10
-50.6995562111
 20
55.2707791559
 10
-50.2837993973
 20
55.7300450638
 10
-49.8396227596
 20
56.1108955301
 10
-49.3830799989
 20
56.3995656265
 10
-48.9306717602
 20
56.5856220638
 10
-48.4987492559
 20
56.6623402776
 10
-48.1029232907
 20
56.6269474716
 10
-47.7976128376
 20
56.5049988896
  0
LWPOLYLINE
  5
1C6
330
197
100
AcDbEntity
  8
0
  6
Continuous
 62
     8
370
    25
100
AcDbPolyline
 90
       18
 70
   128
 43
0.0
 10
-53.1685721196
 20
49.4688716404
 10
-53.2156176923
 20
49.151577675
 10
-53.3829134299
 20
48.791144517
 10
-53.6653461021
 20
48.4555023195
 10
-54.052707856
 20
48.1567820661
 10
-54.5309984288
 20
47.905780285
 10
-55.0829311529
 20
47.7115688346
 10
-55.6885577416
 20
47.5811670227
 10
-56.325989272
 20
47.5192879106
 10
-56.972187308
 20
47.5281679706
 10
-57.6037965686
 20
47.6074862542
 10
-58.1979890498
 20
47.7543759919
 10
-58.7332890869
 20
47.963528206
 10
-59.1903495421
 20
48.2273835904
 10
-59.5526510595
 20
48.5364057241
 10
-59.8070991183
 20
48.8794257421
 10
-59.9444973028
 20
49.2440460071
 10
-59.9685424276
 20
49.4766745402
  0
LINE
  5
1C7
330
197
100
AcDbEntity
  8
0
  6
Continuous
 62
     7
370
    25
100
AcDbLine
 10
53.1685424949
 20
-15.8355837481
 30
0.0
 11
53.1685424949
 21
-28.3286581699
 31
0.0
  0
LINE
  5
1C8
330
197
100
AcDbEntity
  8
0
  6
Continuous
 62
     7
370
    25
100
AcDbLine
 10
59.9685424949
 20
-28.3286581699
 30
0.0
 11
59.9685424949
 21
-15.8355837481
 31
0.0
  0
LINE
  5
1C9
330
197
100
AcDbEntity
  8
0
  6
Continuous
 62
     7
370
    25
100
AcDbLine
 10
-51.1973365285
 20
50.6158666254
 30
0.0
 11
47.7976128376
 21
-6.5327012022
 31
0.0
  0
LINE
  5
1CA
330
197
100
AcDbEntity
  8
0
  6
Continuous
 62
     7
370
    25
100
AcDbLine
 10
51.1973365285
 20
-0.643568938
 30
0.0
 11
-47.7976128376
 21
56.5049988896
 31
0.0
  0
LINE
  5
1CB
330
197
100
AcDbEntity
  8
0
  6
Continuous
 62
     7
370
    25
100
AcDbLine
 10
61.5190942403
 20
-25.9616186404
 30
0.0
 11
61.306927737
 21
-25.8390977118
 31
0.0
  0
LINE
  5
1CC
330
197
100
AcDbEntity
  8
0
  6
Continuous
 62
     7
370
    25
100
AcDbLine
 10
51.8301572529
 20
-25.8390977118
 30
0.0
 11
51.6179907495
 21
-25.9616186404
 31
0.0
  0
LINE
  5
1CD
330
197
100
AcDbEntity
  8
0
  6
Continuous
 62
     7
370
    25
100
AcDbLine
 10
63.5685424949
 20
-32.4113622293
 30
0.0
 11
63.5685424949
 21
-28.818582657
 31
0.0
  0
LINE
  5
1CE
330
197
100
AcDbEntity
  8
0
  6
Continuous
 62
     7
370
    25
100
AcDbLine
 10
49.5685424949
 20
-28.818582657
 30
0.0
 11
49.5685424949
 21
-32.4113622293
 31
0.0
  0
LINE
  5
1CF
330
197
100
AcDbEntity
  8
0
  6
Continuous
 62
     7
370
    25
100
AcDbLine
 10
51.6179907495
 20
-35.268326246
 30
0.0
 11
51.8301572529
 21
-35.3908471745
 31
0.0
  0
LINE
  5
1D0
330
197
100
AcDbEntity
  8
0
  6
Continuous
 62
     7
370
    25
100
AcDbLine
 10
61.306927737
 20
-35.3908471745
 30
0.0
 11
61.5190942403
 21
-35.268326246
 31
0.0
  0
LINE
  5
1D1
330
197
100
AcDbEntity
  8
0
  6
Continuous
 62
     7
370
    25
100
AcDbLine
 10
-53.1685424949
 20
36.7390285323
 30
0.0
 11
-53.1685424949
 21
49.4770651978
 31
0.0
  0
LINE
  5
1D2
330
197
100
AcDbEntity
  8
0
  6
Continuous
 62
     7
370
    25
100
AcDbLine
 10
-59.9685424949
 20
49.4770651978
 30
0.0
 11
-59.9685424949
 21
36.7390285323
 31
0.0
  0
LINE
  5
1D3
330
197
100
AcDbEntity
  8
0
  6
Continuous
 62
     7
370
    25
100
AcDbLine
 10
-51.6179907495
 20
39.3510303054
 30
0.0
 11
-51.8301572529
 21
39.473551234
 31
0.0
  0
LINE
  5
1D4
330
197
100
AcDbEntity
  8
0
  6
Continuous
 62
     7
370
    25
100
AcDbLine
 10
-61.306927737
 20
39.473551234
 30
0.0
 11
-61.5190942403
 21
39.3510303054
 31
0.0
  0
LINE
  5
1D5
330
197
100
AcDbEntity
  8
0
  6
Continuous
 62
     7
370
    25
100
AcDbLine
 10
-49.5685424949
 20
32.9012867165
 30
0.0
 11
-49.5685424949
 21
36.4940662888
 31
0.0
  0
LINE
  5
1D6
330
197
100
AcDbEntity
  8
0
  6
Continuous
 62
     7
370
    25
100
AcDbLine
 10
-63.5685424949
 20
36.4940662888
 30
0.0
 11
-63.5685424949
 21
32.9012867165
 31
0.0
  0
LINE
  5
1D7
330
197
100
AcDbEntity
  8
0
  6
Continuous
 62
     7
370
    25
100
AcDbLine
 10
-61.5190942403
 20
30.0443226998
 30
0.0
 11
-61.306927737
 21
29.9218017713
 31
0.0
  0
LINE
  5
1D8
330
197
100
AcDbEntity
  8
0
  6
Continuous
 62
     7
370
    25
100
AcDbLine
 10
-51.8301572529
 20
29.9218017713
 30
0.0
 11
-51.6179907495
 21
30.0443226998
 31
0.0
  0
ARC
  5
1D9
330
197
100
AcDbEntity
  8
0
  6
Continuous
 62
     7
370
    25
100
AcDbCircle
 10
54.8457950804
 20
-28.1764131677
 30
0.0
 40
1.684148086160691
100
AcDbArc
 50
185.1865514076
 51
246.13358955
  0
ARC
  5
1DA
330
197
100
AcDbEntity
  8
0
  6
Continuous
 62
     7
370
    25
100
AcDbCircle
 10
52.7084801823
 20
-28.8186614191
 30
0.0
 40
3.05808120271635
100
AcDbArc
 50
110.8910888956
 51
249.1250393923
  0
ARC
  5
1DB
330
197
100
AcDbEntity
  8
0
  6
Continuous
 62
     7
370
    25
100
AcDbCircle
 10
53.0759406654
 20
-32.05900493
 30
0.0
 40
3.525052849647131
100
AcDbArc
 50
185.7367530238
 51
245.5833879338
  0
ARC
  5
1DC
330
197
100
AcDbEntity
  8
0
  6
Continuous
 62
     7
370
    25
100
AcDbCircle
 10
56.568499447
 20
-26.2672909191
 30
0.0
 40
10.28066055294298
100
AcDbArc
 50
242.5597256527
 51
297.4456492783
  0
ARC
  5
1DD
330
197
100
AcDbEntity
  8
0
  6
Continuous
 62
     7
370
    25
100
AcDbCircle
 10
-56.5685424949
 20
38.9635369247
 30
0.0
 40
10.20809822082346
100
AcDbArc
 50
242.3428960789
 51
297.6571039211
  0
VIEWPORT
  5
2B9
330
197
100
AcDbEntity
  8
0
100
AcDbViewport
 10
0.0
 20
0.0
 30
0.0
 40
205.6
 41
156.0
 68
     1
 69
     1
 12
0.0
 22
0.0
 13
0.0
 23
0.0
 14
10.0
 24
10.0
 15
10.0
 25
10.0
 16
0.0
 26
0.0
 36
1.0
 17
0.0
 27
0.0
 37
0.0
 42
50.0
 43
0.0
 44
0.0
 45
134.6638132296
 50
0.0
 51
0.0
 72
   100
 90
   557152
  1

281
     0
 71
     1
 74
     0
110
0.0
120
0.0
130
0.0
111
1.0
121
0.0
131
0.0
112
0.0
122
1.0
132
0.0
 79
     0
146
0.0
  0
ENDBLK
  5
19A
330
197
100
AcDbEntity
  8
0
100
AcDbBlockEnd
  0
BLOCK
  5
1E0
330
1DE
100
AcDbEntity
  8
0
100
AcDbBlockBegin
  2
*Paper_Space5
 70
     0
 10
0.0
 20
0.0
 30
0.0
  3
*Paper_Space5
  1

  0
SPLINE
  5
1E2
330
1DE
100
AcDbEntity
  8
0
  6
Continuous
 62
     7
370
    25
100
AcDbSpline
210
0.0
220
0.0
230
1.0
 70
     8
 71
     3
 72
    24
 73
    20
 74
     0
 42
0.000000001
 43
0.00000001
 40
0.0
 40
0.0
 40
0.0
 40
0.0
 40
0.0360523887544357
 40
0.0959736091572527
 40
0.1561414558820677
 40
0.2166653591314734
 40
0.27745039057494
 40
0.3384141457109813
 40
0.3994930567544662
 40
0.4606431677778744
 40
0.5218399144467761
 40
0.5830811999221305
 40
0.6443743506288726
 40
0.7057289018914554
 40
0.7671546002984321
 40
0.8286584639018192
 40
0.8902371703796138
 40
0.9518615740592646
 40
1.0
 40
1.0
 40
1.0
 40
1.0
 10
74.1534497341937
 20
-1.571625180249716
 30
0.0
 10
74.14970833037937
 20
-1.3502457352164
 30
0.0
 10
74.13974849027497
 20
-0.7609204486786967
 30
0.0
 10
74.0375546089865
 20
0.2051582710106796
 30
0.0
 10
73.82469898639239
 20
1.321092069290665
 30
0.0
 10
73.51112376119222
 20
2.433824936140206
 30
0.0
 10
73.10116639146165
 20
3.534563178107571
 30
0.0
 10
72.59794338511173
 20
4.613798807394888
 30
0.0
 10
72.00609503336554
 20
5.662294843101869
 30
0.0
 10
71.33076818284499
 20
6.671308875753621
 30
0.0
 10
70.57767054799358
 20
7.632628487281006
 30
0.0
 10
69.7528865816228
 20
8.538560742101346
 30
0.0
 10
68.86283162615072
 20
9.381845555113266
 30
0.0
 10
67.91426368594168
 20
10.15564858618001
 30
0.0
 10
66.91424797563344
 20
10.85329790461603
 30
0.0
 10
65.87027176624031
 20
11.46922255975151
 30
0.0
 10
64.78996295461889
 20
11.99540710475669
 30
0.0
 10
63.76341779010317
 20
12.40257940114747
 30
0.0
 10
63.09438590770104
 20
12.59868642851988
 30
0.0
 10
62.80097016910911
 20
12.68469262612132
 30
0.0
  0
SPLINE
  5
1E3
330
1DE
100
AcDbEntity
  8
0
  6
Continuous
 62
     7
370
    25
100
AcDbSpline
210
0.0
220
0.0
230
1.0
 70
     8
 71
     3
 72
    22
 73
    18
 74
     0
 42
0.000000001
 43
0.00000001
 40
0.0
 40
0.0
 40
0.0
 40
0.0
 40
0.0347671590005544
 40
0.1069891024836516
 40
0.1792949238065204
 40
0.2516160941581665
 40
0.3240118503510412
 40
0.3964738135637511
 40
0.4689535212608557
 40
0.5413789370392564
 40
0.6136587242107754
 40
0.6857398098162651
 40
0.7576047661152635
 40
0.8292951312041765
 40
0.9009335395314615
 40
0.9727023626685457
 40
1.0
 40
1.0
 40
1.0
 40
1.0
 10
61.01756686572988
 20
6.122720921100326
 30
0.0
 10
61.12613392259793
 20
6.091466644717548
 30
0.0
 10
61.46022771419645
 20
5.995287748451794
 30
0.0
 10
62.03443221486516
 20
5.774814413959736
 30
0.0
 10
62.73060958152811
 20
5.431701749400133
 30
0.0
 10
63.41660269079066
 20
5.010856557469209
 30
0.0
 10
64.07853956411184
 20
4.519602457213145
 30
0.0
 10
64.70426919876647
 20
3.965168544996539
 30
0.0
 10
65.2822625558962
 20
3.357081105014856
 30
0.0
 10
65.80219140669475
 20
2.706410476002605
 30
0.0
 10
66.2553108183597
 20
2.025585547369981
 30
0.0
 10
66.63483849638003
 20
1.327936018754139
 30
0.0
 10
66.93611484139987
 20
0.6273101838274384
 30
0.0
 10
67.15714543073717
 20
-0.0626814588847724
 30
0.0
 10
67.29713931222125
 20
-0.7276691926311439
 30
0.0
 10
67.34872832166431
 20
-1.226813493461416
 30
0.0
 10
67.35242979728788
 20
-1.497137691022421
 30
0.0
 10
67.35344973419372
 20
-1.571625180249723
 30
0.0
  0
SPLINE
  5
1EE
330
1DE
100
AcDbEntity
  8
0
  6
Continuous
 62
     7
370
    25
100
AcDbSpline
210
0.0
220
0.0
230
1.0
 70
     8
 71
     3
 72
    26
 73
    22
 74
     0
 42
0.000000001
 43
0.00000001
 40
0.0
 40
0.0
 40
0.0
 40
0.0
 40
0.033681978324129
 40
0.0919052241350805
 40
0.1500357492234415
 40
0.2078295897524086
 40
0.2651674622093311
 40
0.3219525992599657
 40
0.3781282561803808
 40
0.4336890943695356
 40
0.4886833241955581
 40
0.5432067055046202
 40
0.5973914810730337
 40
0.6513932424280443
 40
0.7053311501148546
 40
0.7593652759272862
 40
0.8136500460125479
 40
0.8683150769729512
 40
0.9234544405078821
 40
0.979118856529267
 40
1.0
 40
1.0
 40
1.0
 40
1.0
 10
-61.0175668657299
 20
46.33591788187029
 30
0.0
 10
-61.23483389249521
 20
46.39149287298842
 30
0.0
 10
-61.82767243065571
 20
46.54313574758041
 30
0.0
 10
-62.80264374269282
 20
46.70751977716301
 30
0.0
 10
-63.93257465098448
 20
46.79801580770045
 30
0.0
 10
-65.04728550412717
 20
46.77911737141395
 30
0.0
 10
-66.13460553238593
 20
46.65267937877376
 30
0.0
 10
-67.1838243033255
 20
46.41998179817278
 30
0.0
 10
-68.18487108108661
 20
46.08446478803246
 30
0.0
 10
-69.12873253649991
 20
45.65070913481149
 30
0.0
 10
-70.00757349964086
 20
45.12429395328115
 30
0.0
 10
-70.81474128414999
 20
44.51138578543635
 30
0.0
 10
-71.54464538972135
 20
43.81844611604069
 30
0.0
 10
-72.19239741561033
 20
43.05222510060903
 30
0.0
 10
-72.75389083677628
 20
42.21952003006677
 30
0.0
 10
-73.22571787435936
 20
41.32706942055019
 30
0.0
 10
-73.60493423973283
 20
40.38127148525912
 30
0.0
 10
-73.8893374433286
 20
39.38856754368864
 30
0.0
 10
-74.075287175214
 20
38.35555275107772
 30
0.0
 10
-74.14675594681053
 20
37.51515674944564
 30
0.0
 10
-74.15201507685171
 20
37.02156631204169
 30
0.0
 10
-74.15344973419371
 20
36.88691796917767
 30
0.0
  0
SPLINE
  5
1EF
330
1DE
100
AcDbEntity
  8
0
  6
Continuous
 62
     7
370
    25
100
AcDbSpline
210
0.0
220
0.0
230
1.0
 70
     8
 71
     3
 72
    20
 73
    16
 74
     0
 42
0.000000001
 43
0.00000001
 40
0.0
 40
0.0
 40
0.0
 40
0.0
 40
0.0350413941746466
 40
0.1102380546246619
 40
0.1869362994654049
 40
0.2671667693265528
 40
0.353117298381101
 40
0.4475432254633535
 40
0.5398872932757499
 40
0.6230659819984655
 40
0.7003297928821616
 40
0.7739531932611361
 40
0.8520396736106226
 40
0.9277689758980694
 40
1.0
 40
1.0
 40
1.0
 40
1.0
 10
-67.35344973419373
 20
36.88691796917767
 30
0.0
 10
-67.35185025281042
 20
36.97838456621239
 30
0.0
 10
-67.34681838349535
 20
37.26613281247194
 30
0.0
 10
-67.28910281091945
 20
37.70939659058116
 30
0.0
 10
-67.16211895281411
 20
38.18912850212831
 30
0.0
 10
-66.97836313318386
 20
38.61151077363499
 30
0.0
 10
-66.73636960456317
 20
38.98520376954978
 30
0.0
 10
-66.43418072441789
 20
39.30462044429061
 30
0.0
 10
-66.07172125364858
 20
39.56545280492669
 30
0.0
 10
-65.65790558695961
 20
39.7640823255856
 30
0.0
 10
-65.20044105327408
 20
39.90136543965545
 30
0.0
 10
-64.68186296853564
 20
39.98164295983852
 30
0.0
 10
-64.09912083521753
 20
39.99330440040138
 30
0.0
 10
-63.46500113805792
 20
39.93318793700624
 30
0.0
 10
-63.01879724004332
 20
39.82618344861437
 30
0.0
 10
-62.80097016910911
 20
39.7739461768493
 30
0.0
  0
LWPOLYLINE
  5
1F8
330
1DE
100
AcDbEntity
  8
0
  6
Continuous
 62
     7
370
    25
100
AcDbPolyline
 90
       12
 70
   128
 43
0.0
 10
69.1666854118
 20
-16.2350155041
 10
69.7644428925
 20
-16.3616923761
 10
70.3979456572
 20
-16.4278156559
 10
71.0442972656
 20
-16.430995476
 10
71.6801368863
 20
-16.3711169094
 10
72.282483619
 20
-16.2503441235
 10
72.8295670831
 20
-16.0730421615
 10
73.301614257
 20
-15.8456191782
 10
73.6815641259
 20
-15.5762948328
 10
73.9556843116
 20
-15.2748032088
 10
74.1140673962
 20
-14.9520409991
 10
74.1534497342
 20
-14.686284881
  0
LWPOLYLINE
  5
1FA
330
1DE
100
AcDbEntity
  8
0
  6
Continuous
 62
     7
370
    25
100
AcDbPolyline
 90
       14
 70
   128
 43
0.0
 10
67.4865820117
 20
-18.389148309
 10
66.6905608866
 20
-18.1364348495
 10
65.9670421093
 20
-17.8313310846
 10
65.3289368894
 20
-17.4792815981
 10
64.7876322298
 20
-17.0865687215
 10
64.3527877249
 20
-16.6602004253
 10
64.0321631851
 20
-16.207785262
 10
63.831480163
 20
-15.7373965908
 10
63.754319852
 20
-15.2574285088
 10
63.8020591795
 20
-14.7764460576
 10
63.9738462361
 20
-14.3030323806
 10
64.2666154777
 20
-13.845635556
 10
64.6751424304
 20
-13.4124178409
 10
65.1579730513
 20
-13.0343225858
  0
LWPOLYLINE
  5
1FB
330
1DE
100
AcDbEntity
  8
0
  6
Continuous
 62
     7
370
    25
100
AcDbPolyline
 90
       22
 70
   128
 43
0.0
 10
76.3489264171
 20
-13.0343225858
 10
76.4613613683
 20
-13.1135848378
 10
76.9505283197
 20
-13.5240420249
 10
77.329108257
 20
-13.9644171657
 10
77.5903454122
 20
-14.4268517556
 10
77.729578002
 20
-14.9030936381
 10
77.7443214177
 20
-15.3846442657
 10
77.6343125625
 20
-15.8629103561
 10
77.4015145471
 20
-16.3293572394
 10
77.0500816577
 20
-16.77566116
 10
76.5862852224
 20
-17.193857814
 10
76.0184016996
 20
-17.5764844719
 10
75.3565649843
 20
-17.9167131522
 10
74.6125855683
 20
-18.208472466
 10
73.7997397819
 20
-18.4465559613
 10
72.9325328775
 20
-18.6267150326
 10
72.0264401827
 20
-18.7457347369
 10
71.0976309432
 20
-18.8014911649
 10
70.1626797819
 20
-18.7929893417
 10
69.2382709244
 20
-18.7203809826
 10
68.3409004686
 20
-18.5849617854
 10
67.4865820117
 20
-18.389148309
  0
LWPOLYLINE
  5
1FC
330
1DE
100
AcDbEntity
  8
0
  6
Continuous
 62
     7
370
    25
100
AcDbPolyline
 90
       24
 70
   128
 43
0.0
 10
67.6265906284
 20
-17.9953454168
 10
68.4625836514
 20
-18.1862095427
 10
69.3412511751
 20
-18.3166669157
 10
70.2462252859
 20
-18.3842873619
 10
71.1606480286
 20
-18.3878112402
 10
72.0674854374
 20
-18.3271729075
 10
72.9498448473
 20
-18.2035019412
 10
73.7912895721
 20
-18.0191020974
 10
74.5761450884
 20
-17.7774083963
 10
75.2897910232
 20
-17.4829231342
 10
75.9189335028
 20
-17.1411320144
 10
76.4518527932
 20
-16.7584019588
 10
76.8786216165
 20
-16.3418625041
 10
77.1912900769
 20
-15.8992729922
 10
77.3840337525
 20
-15.4388780284
 10
77.4532621934
 20
-14.9692538997
 10
77.3976858048
 20
-14.4991488151
 10
77.2183398695
 20
-14.0373199428
 10
76.9185652631
 20
-13.5923702809
 10
76.5039462192
 20
-13.1725883998
 10
75.9822063061
 20
-12.7857940416
 10
75.3630645513
 20
-12.4391924533
 10
74.6580543942
 20
-12.1392401668
 10
74.1534497342
 20
-11.9700100417
  0
LWPOLYLINE
  5
1FD
330
1DE
100
AcDbEntity
  8
0
  6
Continuous
 62
     7
370
    25
100
AcDbPolyline
 90
       17
 70
   128
 43
0.0
 10
67.3534497342
 20
-11.9700100417
 10
66.93075438
 20
-12.1094617461
 10
66.2171084452
 20
-12.4039470082
 10
65.5879659656
 20
-12.745738128
 10
65.0550466752
 20
-13.1284681836
 10
64.6282778519
 20
-13.5450076383
 10
64.3156093915
 20
-13.9875971502
 10
64.1228657159
 20
-14.447992114
 10
64.053637275
 20
-14.9176162427
 10
64.1092136636
 20
-15.3877213273
 10
64.2885595989
 20
-15.8495501996
 10
64.5883342053
 20
-16.2944998615
 10
65.0029532492
 20
-16.7142817426
 10
65.5246931623
 20
-17.1010761009
 10
66.1438349171
 20
-17.4476776891
 10
66.8488450742
 20
-17.7476299756
 10
67.6265906284
 20
-17.9953454168
  0
LWPOLYLINE
  5
1FE
330
1DE
100
AcDbEntity
  8
0
  6
Continuous
 62
     7
370
    25
100
AcDbPolyline
 90
       17
 70
   128
 43
0.0
 10
67.4865820117
 20
-22.1606844321
 10
68.3409004686
 20
-22.3564979085
 10
69.2382709244
 20
-22.4919171057
 10
70.1626797819
 20
-22.5645254648
 10
71.0976309432
 20
-22.573027288
 10
72.0264401827
 20
-22.51727086
 10
72.9325328775
 20
-22.3982511556
 10
73.7997397819
 20
-22.2180920844
 10
74.6125855683
 20
-21.9800085891
 10
75.3565649843
 20
-21.6882492753
 10
76.0184016996
 20
-21.348020595
 10
76.5862852224
 20
-20.965393937
 10
77.0500816577
 20
-20.5471972831
 10
77.4015145471
 20
-20.1008933625
 10
77.6343125625
 20
-19.6344464792
 10
77.7443214177
 20
-19.1561803888
 10
77.7534497342
 20
-18.9721213845
  0
LWPOLYLINE
  5
1FF
330
1DE
100
AcDbEntity
  8
0
  6
Continuous
 62
     7
370
    25
100
AcDbPolyline
 90
       10
 70
   128
 43
0.0
 10
63.7534497342
 20
-18.9721213845
 10
63.754319852
 20
-19.0289646319
 10
63.831480163
 20
-19.5089327139
 10
64.0321631851
 20
-19.9793213851
 10
64.3527877249
 20
-20.4317365484
 10
64.7876322298
 20
-20.8581048446
 10
65.3289368894
 20
-21.2508177212
 10
65.9670421093
 20
-21.6028672077
 10
66.6905608866
 20
-21.9079709726
 10
67.4865820117
 20
-22.1606844321
  0
LWPOLYLINE
  5
200
330
1DE
100
AcDbEntity
  8
0
  6
Continuous
 62
     7
370
    25
100
AcDbPolyline
 90
       10
 70
   128
 43
0.0
 10
69.0266767952
 20
-16.6288183964
 10
68.4547861933
 20
-16.4367032087
 10
67.9611738213
 20
-16.1937365656
 10
67.5626490566
 20
-15.9081924046
 10
67.272783182
 20
-15.5897945898
 10
67.1014472323
 20
-15.2493857767
 10
67.0544758476
 20
-14.8985581794
 10
67.1334685823
 20
-14.5492588108
 10
67.3357354334
 20
-14.2133826419
 10
67.3534497342
 20
-14.1917617475
  0
LWPOLYLINE
  5
201
330
1DE
100
AcDbEntity
  8
0
  6
Continuous
 62
     7
370
    25
100
AcDbPolyline
 90
       15
 70
   128
 43
0.0
 10
74.1534497342
 20
-14.1917617475
 10
74.2341162864
 20
-14.2970755526
 10
74.4054522361
 20
-14.6374843657
 10
74.4524236208
 20
-14.988311963
 10
74.3734308861
 20
-15.3376113316
 10
74.171164035
 20
-15.6734875005
 10
73.8525110225
 20
-15.9845026094
 10
73.4283231948
 20
-16.260065412
 10
72.9130457595
 20
-16.4907919475
 10
72.3242258717
 20
-16.6688251003
 10
71.6819150865
 20
-16.7881021651
 10
71.0079865272
 20
-16.8445613045
 10
70.3253900228
 20
-16.8362798701
 10
69.6573705785
 20
-16.7635398763
 10
69.0266767952
 20
-16.6288183964
  0
LWPOLYLINE
  5
204
330
1DE
100
AcDbEntity
  8
0
  6
Continuous
 62
     7
370
    25
100
AcDbPolyline
 90
       19
 70
   128
 43
0.0
 10
-74.1534497342
 20
23.5151080782
 10
-74.1509890026
 20
23.4484968681
 10
-74.0651146876
 20
23.1185370425
 10
-73.8595481727
 20
22.8029103274
 10
-73.5417191674
 20
22.5130242947
 10
-73.12311484
 20
22.2593561808
 10
-72.6188646416
 20
22.0510742123
 10
-72.0471934881
 20
21.8957062422
 10
-71.4287630646
 20
21.7988676738
 10
-70.7859250578
 20
21.7640585052
 10
-70.1419133081
 20
21.7925368305
 10
-69.5200040783
 20
21.8832733688
 10
-68.9426747882
 20
22.0329886653
 10
-68.4307916225
 20
22.2362716189
 10
-68.0028553727
 20
22.4857750541
 10
-67.6743327696
 20
22.7724812667
 10
-67.4570974763
 20
23.0860279472
 10
-67.359000942
 20
23.4150827016
 10
-67.3534497342
 20
23.5151080782
  0
LWPOLYLINE
  5
205
330
1DE
100
AcDbEntity
  8
0
  6
Continuous
 62
     7
370
    25
100
AcDbPolyline
 90
       35
 70
   128
 43
0.0
 10
-65.1579730513
 20
25.4242205636
 10
-64.7876322298
 20
25.1439413481
 10
-64.3527877249
 20
24.7175730519
 10
-64.0321631851
 20
24.2651578886
 10
-63.831480163
 20
23.7947692174
 10
-63.754319852
 20
23.3148011354
 10
-63.8020591795
 20
22.8338186842
 10
-63.9738462361
 20
22.3604050072
 10
-64.2666154777
 20
21.9030081826
 10
-64.6751424304
 20
21.4697904675
 10
-65.1921369209
 20
21.0684826425
 10
-65.8083731702
 20
20.7062460551
 10
-66.512854428
 20
20.3895448258
 10
-67.2930092096
 20
20.1240304955
 10
-68.1349156342
 20
19.9144411739
 10
-69.0235498619
 20
19.7645169871
 10
-69.9430541938
 20
19.6769333361
 10
-70.8770200533
 20
19.653253153
 10
-71.8087807976
 20
19.6938990112
 10
-72.721709134
 20
19.7981455846
 10
-73.5995138348
 20
19.9641325905
 10
-74.4265304543
 20
20.1888979869
 10
-75.1880008613
 20
20.4684308299
 10
-75.8703365985
 20
20.7977428493
 10
-76.4613613683
 20
21.1709574644
 10
-76.9505283197
 20
21.5814146515
 10
-77.329108257
 20
22.0217897923
 10
-77.5903454122
 20
22.4842243822
 10
-77.729578002
 20
22.9604662647
 10
-77.7443214177
 20
23.4420168923
 10
-77.6343125625
 20
23.9202829827
 10
-77.4015145471
 20
24.386729866
 10
-77.0500816577
 20
24.8330337866
 10
-76.5862852224
 20
25.2512304406
 10
-76.3489264171
 20
25.4242205636
  0
LWPOLYLINE
  5
206
330
1DE
100
AcDbEntity
  8
0
  6
Continuous
 62
     7
370
    25
100
AcDbPolyline
 90
       40
 70
   128
 43
0.0
 10
-74.1534497342
 20
26.4885331077
 10
-74.5761450884
 20
26.3490814033
 10
-75.2897910232
 20
26.0545961413
 10
-75.9189335028
 20
25.7128050215
 10
-76.4518527932
 20
25.3300749658
 10
-76.8786216165
 20
24.9135355111
 10
-77.1912900769
 20
24.4709459993
 10
-77.3840337525
 20
24.0105510354
 10
-77.4532621934
 20
23.5409269067
 10
-77.3976858048
 20
23.0708218221
 10
-77.2183398695
 20
22.6089929498
 10
-76.9185652631
 20
22.164043288
 10
-76.5039462192
 20
21.7442614068
 10
-75.9822063061
 20
21.3574670486
 10
-75.3630645513
 20
21.0108654603
 10
-74.6580543942
 20
20.7109131738
 10
-73.88030884
 20
20.4631977326
 10
-73.044315817
 20
20.2723336068
 10
-72.1656482933
 20
20.1418762337
 10
-71.2606741825
 20
20.0742557876
 10
-70.3462514398
 20
20.0707319092
 10
-69.439414031
 20
20.1313702419
 10
-68.557054621
 20
20.2550412082
 10
-67.7156098963
 20
20.439441052
 10
-66.93075438
 20
20.6811347531
 10
-66.2171084452
 20
20.9756200152
 10
-65.5879659656
 20
21.317411135
 10
-65.0550466752
 20
21.7001411906
 10
-64.6282778519
 20
22.1166806453
 10
-64.3156093915
 20
22.5592701572
 10
-64.1228657159
 20
23.019665121
 10
-64.053637275
 20
23.4892892497
 10
-64.1092136636
 20
23.9593943343
 10
-64.2885595989
 20
24.4212232066
 10
-64.5883342053
 20
24.8661728685
 10
-65.0029532492
 20
25.2859547496
 10
-65.5246931623
 20
25.6727491079
 10
-66.1438349171
 20
26.0193506961
 10
-66.8488450742
 20
26.3193029826
 10
-67.3534497342
 20
26.4885331077
  0
LWPOLYLINE
  5
207
330
1DE
100
AcDbEntity
  8
0
  6
Continuous
 62
     7
370
    25
100
AcDbPolyline
 90
       25
 70
   128
 43
0.0
 10
-77.7534497342
 20
19.4864217649
 10
-77.729578002
 20
19.1889301416
 10
-77.5903454122
 20
18.7126882591
 10
-77.329108257
 20
18.2502536693
 10
-76.9505283197
 20
17.8098785284
 10
-76.4613613683
 20
17.3994213413
 10
-75.8703365985
 20
17.0262067262
 10
-75.1880008613
 20
16.6968947068
 10
-74.4265304543
 20
16.4173618638
 10
-73.5995138348
 20
16.1925964674
 10
-72.721709134
 20
16.0266094615
 10
-71.8087807976
 20
15.9223628882
 10
-70.8770200533
 20
15.8817170299
 10
-69.9430541938
 20
15.905397213
 10
-69.0235498619
 20
15.9929808641
 10
-68.1349156342
 20
16.1429050508
 10
-67.2930092096
 20
16.3524943725
 10
-66.512854428
 20
16.6180087027
 10
-65.8083731702
 20
16.934709932
 10
-65.1921369209
 20
17.2969465194
 10
-64.6751424304
 20
17.6982543444
 10
-64.2666154777
 20
18.1314720595
 10
-63.9738462361
 20
18.5888688841
 10
-63.8020591795
 20
19.0622825611
 10
-63.7534497342
 20
19.4864217649
  0
LWPOLYLINE
  5
209
330
1DE
100
AcDbEntity
  8
0
  6
Continuous
 62
     8
370
    25
100
AcDbPolyline
 90
       19
 70
   128
 43
0.0
 10
67.3534710562
 20
-1.5778268272
 10
67.3559104658
 20
-1.6382363904
 10
67.4417847808
 20
-1.968196216
 10
67.6473512957
 20
-2.283822931
 10
67.965180301
 20
-2.5737089638
 10
68.3837846284
 20
-2.8273770777
 10
68.8880348268
 20
-3.0356590462
 10
69.4597059803
 20
-3.1910270162
 10
70.0781364038
 20
-3.2878655847
 10
70.7209744106
 20
-3.3226747532
 10
71.3649861602
 20
-3.2941964279
 10
71.9868953901
 20
-3.2034598896
 10
72.5642246802
 20
-3.0537445932
 10
73.0761078459
 20
-2.8504616396
 10
73.5040440957
 20
-2.6009582044
 10
73.8325666988
 20
-2.3142519917
 10
74.0498019921
 20
-2.0007053112
 10
74.1478985263
 20
-1.6716505569
 10
74.1534493195
 20
-1.5707603403
  0
LWPOLYLINE
  5
20A
330
1DE
100
AcDbEntity
  8
0
  6
Continuous
 62
     8
370
    25
100
AcDbPolyline
 90
       18
 70
   128
 43
0.0
 10
61.0138518787
 20
6.1237447156
 10
60.8701588687
 20
6.186970904
 10
60.6619875112
 20
6.3847789977
 10
60.498896139
 20
6.6916990068
 10
60.3867792993
 20
7.0966380428
 10
60.3296891868
 20
7.5849605537
 10
60.3296891868
 20
8.1390172916
 10
60.3867792993
 20
8.7387832026
 10
60.498896139
 20
9.3625811839
 10
60.6619875112
 20
9.9878655511
 10
60.8701588687
 20
10.5920368981
 10
61.1158863562
 20
11.1532588982
 10
61.3902887422
 20
11.6512475262
 10
61.6834484095
 20
12.0680041754
 10
61.9847698038
 20
12.3884661748
 10
62.283362385
 20
12.6010511927
 10
62.568434239
 20
12.6980758527
 10
62.8008176942
 20
12.6847340418
  0
LWPOLYLINE
  5
20B
330
1DE
100
AcDbEntity
  8
0
  6
Continuous
 62
     8
370
    25
100
AcDbPolyline
 90
       18
 70
   128
 43
0.0
 10
-62.8009701691
 20
39.7739461768
 10
-62.9483781662
 20
39.8381961598
 10
-63.1565495236
 20
40.0360042534
 10
-63.3196408958
 20
40.3429242626
 10
-63.4317577355
 20
40.7478632985
 10
-63.4888478481
 20
41.2361858094
 10
-63.4888478481
 20
41.7902425474
 10
-63.4317577355
 20
42.3900084584
 10
-63.3196408958
 20
43.0138064396
 10
-63.1565495236
 20
43.6390908068
 10
-62.9483781662
 20
44.2432621538
 10
-62.7026506786
 20
44.804484154
 10
-62.4282482926
 20
45.3024727819
 10
-62.1350886253
 20
45.7192294311
 10
-61.833767231
 20
46.0396914305
 10
-61.5351746499
 20
46.2522764484
 10
-61.2501027958
 20
46.3493011084
 10
-61.0175668657
 20
46.3359178819
  0
LWPOLYLINE
  5
20C
330
1DE
100
AcDbEntity
  8
0
  6
Continuous
 62
     8
370
    25
100
AcDbPolyline
 90
       19
 70
   128
 43
0.0
 10
-67.3534500445
 20
36.8861697915
 10
-67.359000942
 20
36.7868925926
 10
-67.4570974763
 20
36.4578378382
 10
-67.6743327696
 20
36.1442911577
 10
-68.0028553727
 20
35.8575849451
 10
-68.4307916225
 20
35.6080815098
 10
-68.9426747882
 20
35.4047985562
 10
-69.5200040783
 20
35.2550832598
 10
-70.1419133081
 20
35.1643467215
 10
-70.7859250578
 20
35.1358683962
 10
-71.4287630646
 20
35.1706775648
 10
-72.0471934881
 20
35.2675161332
 10
-72.6188646416
 20
35.4228841033
 10
-73.12311484
 20
35.6311660718
 10
-73.5417191674
 20
35.8848341857
 10
-73.8595481727
 20
36.1747202184
 10
-74.0651146876
 20
36.4903469335
 10
-74.1509890026
 20
36.820306759
 10
-74.1534435763
 20
36.8902507695
  0
LINE
  5
20D
330
1DE
100
AcDbEntity
  8
0
  6
Continuous
 62
     7
370
    25
100
AcDbLine
 10
-62.8009701691
 20
39.7739461768
 30
0.0
 11
61.0175668657
 21
6.1227209211
 31
0.0
  0
LINE
  5
20E
330
1DE
100
AcDbEntity
  8
0
  6
Continuous
 62
     7
370
    25
100
AcDbLine
 10
62.8009701691
 20
12.6846926261
 30
0.0
 11
-61.0175668657
 21
46.3359178819
 31
0.0
  0
LINE
  5
20F
330
1DE
100
AcDbEntity
  8
0
  6
Continuous
 62
     7
370
    25
100
AcDbLine
 10
67.3534497342
 20
-1.5716251802
 30
0.0
 11
67.3534497342
 21
-14.686284881
 31
0.0
  0
LINE
  5
210
330
1DE
100
AcDbEntity
  8
0
  6
Continuous
 62
     7
370
    25
100
AcDbLine
 10
74.1534497342
 20
-14.686284881
 30
0.0
 11
74.1534497342
 21
-1.5716251802
 31
0.0
  0
LINE
  5
211
330
1DE
100
AcDbEntity
  8
0
  6
Continuous
 62
     7
370
    25
100
AcDbLine
 10
76.3489264171
 20
-13.0343225858
 30
0.0
 11
76.1091202735
 21
-12.8700122246
 31
0.0
  0
LINE
  5
212
330
1DE
100
AcDbEntity
  8
0
  6
Continuous
 62
     7
370
    25
100
AcDbLine
 10
65.3977791949
 20
-12.8700122246
 30
0.0
 11
65.1579730513
 21
-13.0343225858
 31
0.0
  0
LINE
  5
213
330
1DE
100
AcDbEntity
  8
0
  6
Continuous
 62
     7
370
    25
100
AcDbLine
 10
77.7534497342
 20
-18.9721213845
 30
0.0
 11
77.7534497342
 21
-15.2005852614
 31
0.0
  0
LINE
  5
214
330
1DE
100
AcDbEntity
  8
0
  6
Continuous
 62
     7
370
    25
100
AcDbLine
 10
63.7534497342
 20
-15.2005852614
 30
0.0
 11
63.7534497342
 21
-18.9721213845
 31
0.0
  0
LINE
  5
215
330
1DE
100
AcDbEntity
  8
0
  6
Continuous
 62
     7
370
    25
100
AcDbLine
 10
65.1579730513
 20
-21.1383840601
 30
0.0
 11
65.3977791949
 21
-21.3026944214
 31
0.0
  0
LINE
  5
216
330
1DE
100
AcDbEntity
  8
0
  6
Continuous
 62
     7
370
    25
100
AcDbLine
 10
76.1091202735
 20
-21.3026944214
 30
0.0
 11
76.3489264171
 21
-21.1383840601
 31
0.0
  0
LINE
  5
217
330
1DE
100
AcDbEntity
  8
0
  6
Continuous
 62
     7
370
    25
100
AcDbLine
 10
-67.3534497342
 20
23.5151080782
 30
0.0
 11
-67.3534497342
 21
36.8869179692
 31
0.0
  0
LINE
  5
218
330
1DE
100
AcDbEntity
  8
0
  6
Continuous
 62
     7
370
    25
100
AcDbLine
 10
-74.1534497342
 20
36.8869179692
 30
0.0
 11
-74.1534497342
 21
23.5151080782
 31
0.0
  0
LINE
  5
219
330
1DE
100
AcDbEntity
  8
0
  6
Continuous
 62
     7
370
    25
100
AcDbLine
 10
-65.1579730513
 20
25.4242205636
 30
0.0
 11
-65.3977791949
 21
25.5885309249
 31
0.0
  0
LINE
  5
21A
330
1DE
100
AcDbEntity
  8
0
  6
Continuous
 62
     7
370
    25
100
AcDbLine
 10
-76.1091202735
 20
25.5885309249
 30
0.0
 11
-76.3489264171
 21
25.4242205636
 31
0.0
  0
LINE
  5
21B
330
1DE
100
AcDbEntity
  8
0
  6
Continuous
 62
     7
370
    25
100
AcDbLine
 10
-63.7534497342
 20
19.4864217649
 30
0.0
 11
-63.7534497342
 21
23.257957888
 31
0.0
  0
LINE
  5
21C
330
1DE
100
AcDbEntity
  8
0
  6
Continuous
 62
     7
370
    25
100
AcDbLine
 10
-77.7534497342
 20
23.257957888
 30
0.0
 11
-77.7534497342
 21
19.4864217649
 31
0.0
  0
LINE
  5
21D
330
1DE
100
AcDbEntity
  8
0
  6
Continuous
 62
     7
370
    25
100
AcDbLine
 10
-76.3489264171
 20
17.3201590893
 30
0.0
 11
-76.1091202735
 21
17.1558487281
 31
0.0
  0
LINE
  5
21E
330
1DE
100
AcDbEntity
  8
0
  6
Continuous
 62
     7
370
    25
100
AcDbLine
 10
-65.3977791949
 20
17.1558487281
 30
0.0
 11
-65.1579730513
 21
17.3201590893
 31
0.0
  0
ARC
  5
21F
330
1DE
100
AcDbEntity
  8
0
  6
Continuous
 62
     7
370
    25
100
AcDbCircle
 10
69.3365626074
 20
-14.2003024123
 30
0.0
 40
2.041792258688202
100
AcDbArc
 50
193.7695662884
 51
265.2274719701
  0
ARC
  5
220
330
1DE
100
AcDbEntity
  8
0
  6
Continuous
 62
     7
370
    25
100
AcDbCircle
 10
69.3635126521
 20
-15.2971471026
 30
0.0
 40
7.196779866805612
100
AcDbArc
 50
236.5614197355
 51
256.0339384643
  0
ARC
  5
221
330
1DE
100
AcDbEntity
  8
0
  6
Continuous
 62
     7
370
    25
100
AcDbCircle
 10
70.6982971572
 20
-11.6530116041
 30
0.0
 40
11.06315439960849
100
AcDbArc
 50
253.8798836554
 51
299.2804604724
  0
ARC
  5
222
330
1DE
100
AcDbEntity
  8
0
  6
Continuous
 62
     7
370
    25
100
AcDbCircle
 10
-70.7534497342
 20
26.4035751004
 30
0.0
 40
10.6866107808961
100
AcDbArc
 50
239.9234193431
 51
300.0765806569
  0
VIEWPORT
  5
2BB
330
1DE
100
AcDbEntity
  8
0
100
AcDbViewport
 10
0.0
 20
0.0
 30
0.0
 40
205.6
 41
156.0
 68
     1
 69
     1
 12
0.0
 22
0.0
 13
0.0
 23
0.0
 14
10.0
 24
10.0
 15
10.0
 25
10.0
 16
0.0
 26
0.0
 36
1.0
 17
0.0
 27
0.0
 37
0.0
 42
50.0
 43
0.0
 44
0.0
 45
134.6638132296
 50
0.0
 51
0.0
 72
   100
 90
   557152
  1

281
     0
 71
     1
 74
     0
110
0.0
120
0.0
130
0.0
111
1.0
121
0.0
131
0.0
112
0.0
122
1.0
132
0.0
 79
     0
146
0.0
  0
ENDBLK
  5
1E1
330
1DE
100
AcDbEntity
  8
0
100
AcDbBlockEnd
  0
BLOCK
  5
225
330
223
100
AcDbEntity
  8
0
100
AcDbBlockBegin
  2
*Paper_Space6
 70
     0
 10
0.0
 20
0.0
 30
0.0
  3
*Paper_Space6
  1

  0
SPLINE
  5
227
330
223
100
AcDbEntity
  8
0
  6
Continuous
 62
     7
370
    25
100
AcDbSpline
210
0.0
220
0.0
230
1.0
 70
     8
 71
     3
 72
    25
 73
    21
 74
     0
 42
0.000000001
 43
0.00000001
 40
0.0
 40
0.0
 40
0.0
 40
0.0
 40
0.035386142676455
 40
0.0940918228706933
 40
0.1529019550288158
 40
0.2118711720529112
 40
0.2709776210304364
 40
0.3301997182049716
 40
0.3895173315124588
 40
0.4489124435116325
 40
0.5083691368962784
 40
0.567873025502823
 40
0.6274073661495138
 40
0.6869558001136291
 40
0.7465013563082931
 40
0.8060238156766558
 40
0.8654990970172208
 40
0.9248992454717626
 40
0.9841931973233502
 40
1.0
 40
1.0
 40
1.0
 40
1.0
 10
78.23314773793129
 20
9.993775845753667
 30
0.0
 10
78.22932525981531
 20
10.22846923793333
 30
0.0
 10
78.21916128299803
 20
10.85251942864777
 30
0.0
 10
78.11451068797905
 20
11.86883495273598
 30
0.0
 10
77.89582981894358
 20
13.0333285142301
 30
0.0
 10
77.57329618483345
 20
14.18334531836331
 30
0.0
 10
77.15123939499846
 20
15.30963742335874
 30
0.0
 10
76.63243039775266
 20
16.40285355314274
 30
0.0
 10
76.02113343812502
 20
17.4538408448649
 30
0.0
 10
75.32219943108555
 20
18.45380210515973
 30
0.0
 10
74.54124386989656
 20
19.3943428296189
 30
0.0
 10
73.68454940653842
 20
20.26751804364653
 30
0.0
 10
72.75903943922576
 20
21.06589428312061
 30
0.0
 10
71.77223091033541
 20
21.78259984834457
 30
0.0
 10
70.73218299001533
 20
22.41142315910517
 30
0.0
 10
69.64746836365315
 20
22.94672912460618
 30
0.0
 10
68.52713054736549
 20
23.38402749994929
 30
0.0
 10
67.38066378862781
 20
23.71817303162683
 30
0.0
 10
66.50123640171248
 20
23.89383225267571
 30
0.0
 10
66.00784965738572
 20
23.95982143658974
 30
0.0
 10
65.90400427048066
 20
23.97371048491522
 30
0.0
  0
SPLINE
  5
228
330
223
100
AcDbEntity
  8
0
  6
Continuous
 62
     7
370
    25
100
AcDbSpline
210
0.0
220
0.0
230
1.0
 70
     8
 71
     3
 72
    21
 73
    17
 74
     0
 42
0.000000001
 43
0.00000001
 40
0.0
 40
0.0
 40
0.0
 40
0.0
 40
0.0347740654358832
 40
0.1127811870431632
 40
0.1902647370953084
 40
0.2671868451786728
 40
0.3437298281905881
 40
0.4200203770459513
 40
0.4961447739093726
 40
0.5721649608756447
 40
0.6481259521344828
 40
0.724073805580363
 40
0.8000780050782601
 40
0.8762361739837415
 40
0.9526881862403521
 40
1.0
 40
1.0
 40
1.0
 40
1.0
 10
65.05400427089911
 20
17.22704464164779
 30
0.0
 10
65.16454594566302
 20
17.21125481541176
 30
0.0
 10
65.5230608659446
 20
17.16004437096752
 30
0.0
 10
66.13666009442933
 20
17.00801051587554
 30
0.0
 10
66.88211433424841
 20
16.73201247902834
 30
0.0
 10
67.60593736001287
 20
16.36574778488064
 30
0.0
 10
68.29523312582204
 20
15.91657181700764
 30
0.0
 10
68.93880329724963
 20
15.39118945213098
 30
0.0
 10
69.52602058740621
 20
14.79829590694931
 30
0.0
 10
70.04727697417587
 20
14.14785611469463
 30
0.0
 10
70.49429810153327
 20
13.45104999771543
 30
0.0
 10
70.86023018513774
 20
12.71998982990848
 30
0.0
 10
71.14052334406166
 20
11.96711362923367
 30
0.0
 10
71.33033767009096
 20
11.20569796173771
 30
0.0
 10
71.42102523615216
 20
10.54406378844163
 30
0.0
 10
71.42979520014607
 20
10.14596069622528
 30
0.0
 10
71.43314773793131
 20
9.993775845753662
 30
0.0
  0
SPLINE
  5
235
330
223
100
AcDbEntity
  8
0
  6
Continuous
 62
     7
370
    25
100
AcDbSpline
210
0.0
220
0.0
230
1.0
 70
     8
 71
     3
 72
    26
 73
    22
 74
     0
 42
0.000000001
 43
0.00000001
 40
0.0
 40
0.0
 40
0.0
 40
0.0
 40
0.0345849663360732
 40
0.0920569580481711
 40
0.1494173956645563
 40
0.2065677172271065
 40
0.2634965130128208
 40
0.320204559768218
 40
0.3767056445847906
 40
0.4330263627553061
 40
0.4892046381867584
 40
0.5452871707058875
 40
0.6013207136885594
 40
0.6573474930139834
 40
0.7134210308094469
 40
0.7695902887460572
 40
0.8258965409048241
 40
0.8823710704580849
 40
0.9390338992838394
 40
0.9932971747917213
 40
0.9999999999999999
 40
0.9999999999999999
 40
0.9999999999999999
 40
0.9999999999999999
 10
-65.05400427089913
 20
40.47286870489059
 30
0.0
 10
-65.28733606410005
 20
40.49839626060598
 30
0.0
 10
-65.90840982456794
 20
40.56634454491911
 30
0.0
 10
-66.91822428867671
 20
40.58691037051344
 30
0.0
 10
-68.07114003940379
 20
40.50817133441742
 30
0.0
 10
-69.201968190822
 20
40.32039347619907
 30
0.0
 10
-70.30030984547497
 20
40.02762386399372
 30
0.0
 10
-71.35694019798126
 20
39.63236453483229
 30
0.0
 10
-72.36313091234865
 20
39.13866763356066
 30
0.0
 10
-73.3107902945804
 20
38.55118068152993
 30
0.0
 10
-74.19248074082597
 20
37.87525635969095
 30
0.0
 10
-75.00140450108962
 20
37.11681458246329
 30
0.0
 10
-75.73137520729337
 20
36.28232196910167
 30
0.0
 10
-76.37688368706218
 20
35.37868384050158
 30
0.0
 10
-76.9330925428286
 20
34.41316192927005
 30
0.0
 10
-77.3958374277859
 20
33.39329724762447
 30
0.0
 10
-77.76150733209883
 20
32.32698017172948
 30
0.0
 10
-78.02731100186222
 20
31.22244361446605
 30
0.0
 10
-78.18791003752506
 20
30.10564883045252
 30
0.0
 10
-78.2315770549125
 20
29.30950329010069
 30
0.0
 10
-78.23299215671604
 20
28.89547624255269
 30
0.0
 10
-78.2331477379313
 20
28.84995666858265
 30
0.0
  0
SPLINE
  5
236
330
223
100
AcDbEntity
  8
0
  6
Continuous
 62
     7
370
    25
100
AcDbSpline
210
0.0
220
0.0
230
1.0
 70
     8
 71
     3
 72
    20
 73
    16
 74
     0
 42
0.000000001
 43
0.00000001
 40
0.0
 40
0.0
 40
0.0
 40
0.0
 40
0.0352353458591202
 40
0.1144938729410957
 40
0.1945052139065932
 40
0.276034276396496
 40
0.3594507850504209
 40
0.4449655438965886
 40
0.5323836972605954
 40
0.6208839109780716
 40
0.7087423482050087
 40
0.7948456395436667
 40
0.8788396803118242
 40
0.9608989551495972
 40
0.9999999999999999
 40
0.9999999999999999
 40
0.9999999999999999
 40
0.9999999999999999
 10
-71.43314773793132
 20
28.84995666858265
 30
0.0
 10
-71.43130336166566
 20
28.96030732449537
 30
0.0
 10
-71.42531023809417
 20
29.31888118460597
 30
0.0
 10
-71.35269187150158
 20
29.90537607800247
 30
0.0
 10
-71.18109866804475
 20
30.58650324995089
 30
0.0
 10
-70.92392406919211
 20
31.22295793462289
 30
0.0
 10
-70.58391433406351
 20
31.80906916244539
 30
0.0
 10
-70.16173560161938
 20
32.33733166278278
 30
0.0
 10
-69.65925575764373
 20
32.79884275669396
 30
0.0
 10
-69.08205963783212
 20
33.18236661805006
 30
0.0
 10
-68.44082184774022
 20
33.47714000696686
 30
0.0
 10
-67.75028330460734
 20
33.67637833227066
 30
0.0
 10
-67.02459119826854
 20
33.77551166116245
 30
0.0
 10
-66.40287451651288
 20
33.77971024580004
 30
0.0
 10
-66.02572011834458
 20
33.73925775251688
 30
0.0
 10
-65.90400427048067
 20
33.72620286162317
 30
0.0
  0
LWPOLYLINE
  5
23F
330
223
100
AcDbEntity
  8
0
  6
Continuous
 62
     7
370
    25
100
AcDbPolyline
 90
       12
 70
   128
 43
0.0
 10
73.6310662102
 20
-5.4913387502
 10
74.2546857084
 20
-5.5480125153
 10
74.8992123315
 20
-5.5643218562
 10
75.541351208
 20
-5.5396773109
 10
76.157893766
 20
-5.4749695975
 10
76.7265565508
 20
-5.3725374214
 10
77.226786608
 20
-5.2360829483
 10
77.6405043199
 20
-5.0705379984
 10
77.9527568503
 20
-4.8818857974
 10
78.1522585794
 20
-4.6769447275
 10
78.2317989948
 20
-4.4631218929
 10
78.2331477379
 20
-4.4312024909
  0
LWPOLYLINE
  5
240
330
223
100
AcDbEntity
  8
0
  6
Continuous
 62
     7
370
    25
100
AcDbPolyline
 90
        8
 70
   128
 43
0.0
 10
71.4331477379
 20
-4.4312024909
 10
71.4407834409
 20
-4.5071150694
 10
71.5451875329
 20
-4.719746285
 10
71.7684270735
 20
-4.9219487761
 10
72.1024336039
 20
-5.1064144178
 10
72.5351352579
 20
-5.2664761412
 10
73.0508930704
 20
-5.3963488987
 10
73.6310662102
 20
-5.4913387502
  0
LWPOLYLINE
  5
241
330
223
100
AcDbEntity
  8
0
  6
Continuous
 62
     7
370
    25
100
AcDbPolyline
 90
       13
 70
   128
 43
0.0
 10
72.3582740043
 20
-7.179521391
 10
71.5076063825
 20
-7.0500906897
 10
70.716283125
 20
-6.8840205363
 10
69.998425414
 20
-6.6842744565
 10
69.3668434374
 20
-6.4544169239
 10
68.8328077906
 20
-6.1985497517
 10
68.4058483522
 20
-5.9212388955
 10
68.0935842237
 20
-5.6274329743
 10
67.9015877658
 20
-5.3223749614
 10
67.8332851597
 20
-5.0115086246
 10
67.8898952672
 20
-4.7003813809
 10
68.0704078795
 20
-4.3945453033
 10
68.2852473108
 20
-4.1719300049
  0
LWPOLYLINE
  5
242
330
223
100
AcDbEntity
  8
0
  6
Continuous
 62
     7
370
    25
100
AcDbPolyline
 90
       19
 70
   128
 43
0.0
 10
81.381048165
 20
-4.1719300049
 10
81.4313136933
 20
-4.2176998753
 10
81.6840082843
 20
-4.5178020069
 10
81.8144491064
 20
-4.8264534378
 10
81.8203084403
 20
-5.138146276
 10
81.7014817259
 20
-5.4473183555
 10
81.4600894288
 20
-5.748452493
 10
81.1004392002
 20
-6.0361749429
 10
80.628949007
 20
-6.3053512912
 10
80.0540326029
 20
-6.5511780795
 10
79.3859493846
 20
-6.7692685231
 10
78.6366213131
 20
-6.9557307927
 10
77.8194201655
 20
-7.1072374648
 10
76.9489289158
 20
-7.2210848992
 10
76.0406815008
 20
-7.2952414857
 10
75.1108856171
 20
-7.3283838983
 10
74.1761334945
 20
-7.3199207099
 10
73.2531058066
 20
-7.2700029462
 10
72.3582740043
 20
-7.179521391
  0
LWPOLYLINE
  5
243
330
223
100
AcDbEntity
  8
0
  6
Continuous
 62
     7
370
    25
100
AcDbPolyline
 90
       23
 70
   128
 43
0.0
 10
72.4643400215
 20
-6.8031372439
 10
73.339797213
 20
-6.8911968642
 10
74.2430726993
 20
-6.9387002685
 10
75.1573401671
 20
-6.944762558
 10
76.0655685434
 20
-6.909270804
 10
76.9508392518
 20
-6.8328861505
 10
77.7966613742
 20
-6.7170314992
 10
78.5872788447
 20
-6.563865003
 10
79.3079639558
 20
-6.3762398639
 10
79.9452917074
 20
-6.1576511832
 10
80.4873898894
 20
-5.9121708546
 10
80.9241602384
 20
-5.6443717121
 10
81.2474665492
 20
-5.3592423469
 10
81.4512862368
 20
-5.0620941797
 10
81.5318225262
 20
-4.7584625186
 10
81.4875751787
 20
-4.454003447
 10
81.3193684386
 20
-4.1543884612
 10
81.0303356792
 20
-3.8651988217
 10
80.6258610341
 20
-3.5918215842
 10
80.1134791005
 20
-3.3393492494
 10
79.5027345843
 20
-3.1124848991
 10
78.8050045004
 20
-2.9154545871
 10
78.2331477379
 20
-2.789640534
  0
LWPOLYLINE
  5
244
330
223
100
AcDbEntity
  8
0
  6
Continuous
 62
     7
370
    25
100
AcDbPolyline
 90
       18
 70
   128
 43
0.0
 10
71.4331477379
 20
-2.789640534
 10
71.0790166312
 20
-2.8642254038
 10
70.3583315201
 20
-3.0518505429
 10
69.7210037684
 20
-3.2704392235
 10
69.1789055864
 20
-3.5159195521
 10
68.7421352374
 20
-3.7837186947
 10
68.4188289267
 20
-4.0688480598
 10
68.2150092391
 20
-4.365996227
 10
68.1344729497
 20
-4.6696278881
 10
68.1787202972
 20
-4.9740869598
 10
68.3469270373
 20
-5.2737019455
 10
68.6359597966
 20
-5.562891585
 10
69.0404344418
 20
-5.8362688225
 10
69.5528163754
 20
-6.0887411574
 10
70.1635608915
 20
-6.3156055076
 10
70.8612909754
 20
-6.5126358196
 10
71.6330092358
 20
-6.6761617915
 10
72.4643400215
 20
-6.8031372439
  0
LWPOLYLINE
  5
245
330
223
100
AcDbEntity
  8
0
  6
Continuous
 62
     7
370
    25
100
AcDbPolyline
 90
       16
 70
   128
 43
0.0
 10
72.3582740043
 20
-11.3278811741
 10
73.2531058066
 20
-11.4183627293
 10
74.1761334945
 20
-11.468280493
 10
75.1108856171
 20
-11.4767436814
 10
76.0406815008
 20
-11.4436012688
 10
76.9489289158
 20
-11.3694446823
 10
77.8194201655
 20
-11.2555972479
 10
78.6366213131
 20
-11.1040905758
 10
79.3859493846
 20
-10.9176283062
 10
80.0540326029
 20
-10.6995378626
 10
80.628949007
 20
-10.4537110743
 10
81.1004392002
 20
-10.184534726
 10
81.4600894288
 20
-9.8968122761
 10
81.7014817259
 20
-9.5956781385
 10
81.8203084403
 20
-9.2865060591
 10
81.8331477379
 20
-9.1452476989
  0
LWPOLYLINE
  5
246
330
223
100
AcDbEntity
  8
0
  6
Continuous
 62
     7
370
    25
100
AcDbPolyline
 90
       11
 70
   128
 43
0.0
 10
67.8331477379
 20
-9.1452476989
 10
67.8332851597
 20
-9.1598684077
 10
67.9015877658
 20
-9.4707347445
 10
68.0935842237
 20
-9.7757927573
 10
68.4058483522
 20
-10.0695986786
 10
68.8328077906
 20
-10.3469095348
 10
69.3668434374
 20
-10.602776707
 10
69.998425414
 20
-10.8326342396
 10
70.716283125
 20
-11.0323803194
 10
71.5076063825
 20
-11.1984504728
 10
72.3582740043
 20
-11.3278811741
  0
LWPOLYLINE
  5
247
330
223
100
AcDbEntity
  8
0
  6
Continuous
 62
     7
370
    25
100
AcDbPolyline
 90
       10
 70
   128
 43
0.0
 10
73.525000193
 20
-5.8677228974
 10
72.9113107308
 20
-5.7679555154
 10
72.3630671228
 20
-5.6322984818
 10
71.8989391476
 20
-5.4653714342
 10
71.5347321268
 20
-5.2728588728
 10
71.2828486936
 20
-5.0613165822
 10
71.1518664362
 20
-4.8379483813
 10
71.1462457984
 20
-4.6103608062
 10
71.2661781841
 20
-4.3863040789
 10
71.372114655
 20
-4.2779960219
  0
LWPOLYLINE
  5
248
330
223
100
AcDbEntity
  8
0
  6
Continuous
 62
     7
370
    25
100
AcDbPolyline
 90
       14
 70
   128
 43
0.0
 10
78.2941808208
 20
-4.2779960219
 10
78.3834467823
 20
-4.3667738245
 10
78.5144290397
 20
-4.5901420255
 10
78.5200496775
 20
-4.8177296005
 10
78.4001172917
 20
-5.0417863278
 10
78.1587160359
 20
-5.2546822241
 10
77.8040665403
 20
-5.4491673752
 10
77.3482459681
 20
-5.6186188223
 10
76.8067767422
 20
-5.7572660998
 10
76.1980979477
 20
-5.8603877409
 10
75.5429374108
 20
-5.9244720617
 10
74.8636058379
 20
-5.9473367476
 10
74.183237051
 20
-5.9282031691
 10
73.525000193
 20
-5.8677228974
  0
LWPOLYLINE
  5
24B
330
223
100
AcDbEntity
  8
0
  6
Continuous
 62
     7
370
    25
100
AcDbPolyline
 90
       18
 70
   128
 43
0.0
 10
-78.2331477379
 20
14.1421356195
 10
-78.1885032987
 20
13.9590785365
 10
-78.0239363103
 20
13.7507182115
 10
-77.7440459095
 20
13.5565047314
 10
-77.3589480644
 20
13.3834574775
 10
-76.8825612146
 20
13.2378308283
 10
-76.3321032221
 20
13.1248881104
 10
-75.7274690728
 20
13.0487113679
 10
-75.0905118204
 20
13.0120538268
 10
-74.4442527596
 20
13.016240386
 10
-73.8120493764
 20
13.0611197325
 10
-73.2167511486
 20
13.1450698097
 10
-72.6798737049
 20
13.265056443
 10
-72.2208211951
 20
13.4167430031
 10
-71.8561849729
 20
13.5946471422
 10
-71.5991439414
 20
13.7923389414
 10
-71.4589882333
 20
14.002673304
 10
-71.4331477379
 20
14.1421356195
  0
LWPOLYLINE
  5
24C
330
223
100
AcDbEntity
  8
0
  6
Continuous
 62
     7
370
    25
100
AcDbPolyline
 90
       31
 70
   128
 43
0.0
 10
-68.2852473108
 20
14.6842508179
 10
-68.0935842237
 20
14.4898379654
 10
-67.9015877658
 20
14.1847799526
 10
-67.8332851597
 20
13.8739136157
 10
-67.8898952672
 20
13.562786372
 10
-68.0704078795
 20
13.2569502944
 10
-68.3716017449
 20
12.961863035
 10
-68.7881020515
 20
12.6827904329
 10
-69.3124763416
 20
12.4247125454
 10
-69.9353671436
 20
12.1922347784
 10
-70.6456589563
 20
11.9895057031
 10
-71.4306766055
 20
11.8201430249
 10
-72.2764114327
 20
11.6871690246
 10
-73.1677712798
 20
11.5929566264
 10
-74.0888498093
 20
11.5391870528
 10
-75.0232103529
 20
11.5268198232
 10
-75.9541792247
 20
11.556075631
 10
-76.8651432631
 20
11.6264324057
 10
-77.7398462931
 20
11.7366346289
 10
-78.5626792186
 20
11.8847157394
 10
-79.3189585664
 20
12.0680332262
 10
-79.9951885138
 20
12.2833157844
 10
-80.5793017212
 20
12.5267216917
 10
-81.0608746746
 20
12.793907364
 10
-81.4313136933
 20
13.0801048665
 10
-81.6840082843
 20
13.380206998
 10
-81.8144491064
 20
13.6888584289
 10
-81.8203084403
 20
14.0005512672
 10
-81.7014817259
 20
14.3097233466
 10
-81.4600894288
 20
14.6108574842
 10
-81.381048165
 20
14.6842508179
  0
LWPOLYLINE
  5
24D
330
223
100
AcDbEntity
  8
0
  6
Continuous
 62
     7
370
    25
100
AcDbPolyline
 90
       40
 70
   128
 43
0.0
 10
-78.2331477379
 20
16.0665402889
 10
-78.5872788447
 20
15.9919554191
 10
-79.3079639558
 20
15.80433028
 10
-79.9452917074
 20
15.5857415993
 10
-80.4873898894
 20
15.3402612707
 10
-80.9241602384
 20
15.0724621282
 10
-81.2474665492
 20
14.787332763
 10
-81.4512862368
 20
14.4901845958
 10
-81.5318225262
 20
14.1865529347
 10
-81.4875751787
 20
13.8820938631
 10
-81.3193684386
 20
13.5824788773
 10
-81.0303356792
 20
13.2932892378
 10
-80.6258610341
 20
13.0199120003
 10
-80.1134791005
 20
12.7674396655
 10
-79.5027345843
 20
12.5405753152
 10
-78.8050045004
 20
12.3435450032
 10
-78.0332862401
 20
12.1800190313
 10
-77.2019554544
 20
12.0530435789
 10
-76.3264982628
 20
11.9649839586
 10
-75.4232227765
 20
11.9174805544
 10
-74.5089553087
 20
11.9114182648
 10
-73.6007269325
 20
11.9469100189
 10
-72.7154562241
 20
12.0232946723
 10
-71.8696341017
 20
12.1391493237
 10
-71.0790166312
 20
12.2923158199
 10
-70.3583315201
 20
12.479940959
 10
-69.7210037684
 20
12.6985296396
 10
-69.1789055864
 20
12.9440099682
 10
-68.7421352374
 20
13.2118091108
 10
-68.4188289267
 20
13.4969384759
 10
-68.2150092391
 20
13.7940866431
 10
-68.1344729497
 20
14.0977183042
 10
-68.1787202972
 20
14.4021773759
 10
-68.3469270373
 20
14.7017923616
 10
-68.6359597966
 20
14.9909820011
 10
-69.0404344418
 20
15.2643592386
 10
-69.5528163754
 20
15.5168315735
 10
-70.1635608915
 20
15.7436959237
 10
-70.8612909754
 20
15.9407262357
 10
-71.4331477379
 20
16.0665402889
  0
LWPOLYLINE
  5
24E
330
223
100
AcDbEntity
  8
0
  6
Continuous
 62
     7
370
    25
100
AcDbPolyline
 90
       25
 70
   128
 43
0.0
 10
-81.8331477379
 20
9.7109331239
 10
-81.8144491064
 20
9.5404986458
 10
-81.6840082843
 20
9.2318472149
 10
-81.4313136933
 20
8.9317450834
 10
-81.0608746746
 20
8.6455475809
 10
-80.5793017212
 20
8.3783619086
 10
-79.9951885138
 20
8.1349560013
 10
-79.3189585664
 20
7.9196734431
 10
-78.5626792186
 20
7.7363559563
 10
-77.7398462931
 20
7.5882748458
 10
-76.8651432631
 20
7.4780726226
 10
-75.9541792247
 20
7.4077158479
 10
-75.0232103529
 20
7.3784600401
 10
-74.0888498093
 20
7.3908272697
 10
-73.1677712798
 20
7.4445968433
 10
-72.2764114327
 20
7.5388092415
 10
-71.4306766055
 20
7.6717832418
 10
-70.6456589563
 20
7.8411459201
 10
-69.9353671436
 20
8.0438749953
 10
-69.3124763416
 20
8.2763527623
 10
-68.7881020515
 20
8.5344306499
 10
-68.3716017449
 20
8.8135032519
 10
-68.0704078795
 20
9.1085905113
 10
-67.8898952672
 20
9.4144265889
 10
-67.8331477379
 20
9.7109331239
  0
LWPOLYLINE
  5
24F
330
223
100
AcDbEntity
  8
0
  6
Continuous
 62
     7
370
    25
100
AcDbPolyline
 90
       20
 70
   128
 43
0.0
 10
-68.5658716148
 20
8.6384878395
 10
-68.7421352374
 20
8.4977639027
 10
-69.1789055864
 20
8.2299647602
 10
-69.7210037684
 20
7.9844844315
 10
-70.3583315201
 20
7.7658957509
 10
-71.0790166312
 20
7.5782706118
 10
-71.8696341017
 20
7.4251041156
 10
-72.7154562241
 20
7.3092494643
 10
-73.6007269325
 20
7.2328648108
 10
-74.5089553087
 20
7.1973730568
 10
-75.4232227765
 20
7.2034353463
 10
-76.3264982628
 20
7.2509387506
 10
-77.2019554544
 20
7.3389983709
 10
-78.0332862401
 20
7.4659738232
 10
-78.8050045004
 20
7.6294997951
 10
-79.5027345843
 20
7.8265301072
 10
-80.1134791005
 20
8.0533944574
 10
-80.6258610341
 20
8.3058667922
 10
-81.0303356793
 20
8.5792440298
 10
-81.100423861
 20
8.6384878395
  0
LWPOLYLINE
  5
250
330
223
100
AcDbEntity
  8
0
  6
Continuous
 62
     8
370
    25
100
AcDbPolyline
 90
       18
 70
   128
 43
0.0
 10
71.4331548628
 20
9.9914556722
 10
71.4777921771
 20
9.8107187628
 10
71.6423591655
 20
9.6023584378
 10
71.9222495664
 20
9.4081449577
 10
72.3073474115
 20
9.2350977037
 10
72.7837342613
 20
9.0894710546
 10
73.3341922538
 20
8.9765283367
 10
73.938826403
 20
8.9003515942
 10
74.5757836554
 20
8.8636940531
 10
75.2220427163
 20
8.8678806123
 10
75.8542460994
 20
8.9127599588
 10
76.4495443273
 20
8.996710036
 10
76.986421771
 20
9.1166966693
 10
77.4454742808
 20
9.2683832294
 10
77.810110503
 20
9.4462873685
 10
78.0671515345
 20
9.6439791677
 10
78.2073072426
 20
9.8543135303
 10
78.2331476906
 20
9.9935867668
  0
LWPOLYLINE
  5
251
330
223
100
AcDbEntity
  8
0
  6
Continuous
 62
     8
370
    25
100
AcDbPolyline
 90
       18
 70
   128
 43
0.0
 10
65.0515621031
 20
17.227360415
 10
64.8779635068
 20
17.2942210584
 10
64.6918082792
 20
17.4835423459
 10
64.5341043657
 20
17.7855141791
 10
64.4105515967
 20
18.1892225091
 10
64.3256154911
 20
18.6800762649
 10
64.2823658612
 20
19.2403347129
 10
64.2823658612
 20
19.8497486531
 10
64.3256154911
 20
20.4862922778
 10
64.4105515967
 20
21.126959242
 10
64.5341043657
 20
21.7485941724
 10
64.6918082792
 20
22.3287295628
 10
64.8779635068
 20
22.8463978088
 10
65.0858419137
 20
23.2828890312
 10
65.3079302325
 20
23.6224272999
 10
65.5362016128
 20
23.8527408173
 10
65.7624057321
 20
23.9655054527
 10
65.9037896488
 20
23.9737374623
  0
LWPOLYLINE
  5
252
330
223
100
AcDbEntity
  8
0
  6
Continuous
 62
     8
370
    25
100
AcDbPolyline
 90
       18
 70
   128
 43
0.0
 10
-65.9040042705
 20
33.7262028616
 10
-66.0800450346
 20
33.7933792783
 10
-66.2662002622
 20
33.9827005659
 10
-66.4239041757
 20
34.2846723991
 10
-66.5474569447
 20
34.688380729
 10
-66.6323930503
 20
35.1792344848
 10
-66.6756426802
 20
35.7394929329
 10
-66.6756426802
 20
36.348906873
 10
-66.6323930503
 20
36.9854504978
 10
-66.5474569447
 20
37.626117462
 10
-66.4239041757
 20
38.2477523924
 10
-66.2662002622
 20
38.8278877828
 10
-66.0800450346
 20
39.3455560288
 10
-65.8721666277
 20
39.7820472512
 10
-65.6500783089
 20
40.1215855199
 10
-65.4218069286
 20
40.3518990373
 10
-65.1956028093
 20
40.4646636727
 10
-65.0540042709
 20
40.4728687049
  0
LWPOLYLINE
  5
253
330
223
100
AcDbEntity
  8
0
  6
Continuous
 62
     8
370
    25
100
AcDbPolyline
 90
       18
 70
   128
 43
0.0
 10
-71.4331586528
 20
28.8470849491
 10
-71.4589882333
 20
28.7104943531
 10
-71.5991439414
 20
28.5001599906
 10
-71.8561849729
 20
28.3024681914
 10
-72.2208211951
 20
28.1245640522
 10
-72.6798737049
 20
27.9728774922
 10
-73.2167511486
 20
27.8528908588
 10
-73.8120493764
 20
27.7689407816
 10
-74.4442527596
 20
27.7240614351
 10
-75.0905118204
 20
27.7198748759
 10
-75.7274690728
 20
27.756532417
 10
-76.3321032221
 20
27.8327091595
 10
-76.8825612146
 20
27.9456518774
 10
-77.3589480644
 20
28.0912785266
 10
-77.7440459095
 20
28.2643257805
 10
-78.0239363103
 20
28.4585392606
 10
-78.1885032987
 20
28.6668995856
 10
-78.2331477379
 20
28.8499574991
  0
LINE
  5
254
330
223
100
AcDbEntity
  8
0
  6
Continuous
 62
     7
370
    25
100
AcDbLine
 10
71.4331477379
 20
9.9937758458
 30
0.0
 11
71.4331477379
 21
-4.4312024909
 31
0.0
  0
LINE
  5
255
330
223
100
AcDbEntity
  8
0
  6
Continuous
 62
     7
370
    25
100
AcDbLine
 10
78.2331477379
 20
-4.4312024909
 30
0.0
 11
78.2331477379
 21
9.9937758458
 31
0.0
  0
LINE
  5
256
330
223
100
AcDbEntity
  8
0
  6
Continuous
 62
     7
370
    25
100
AcDbLine
 10
-65.9040042705
 20
33.7262028616
 30
0.0
 11
65.0540042709
 21
17.2270446416
 31
0.0
  0
LINE
  5
257
330
223
100
AcDbEntity
  8
0
  6
Continuous
 62
     7
370
    25
100
AcDbLine
 10
65.9040042705
 20
23.9737104849
 30
0.0
 11
-65.0540042709
 21
40.4728687049
 31
0.0
  0
LINE
  5
258
330
223
100
AcDbEntity
  8
0
  6
Continuous
 62
     7
370
    25
100
AcDbLine
 10
81.381048165
 20
-4.1719300049
 30
0.0
 11
81.100423861
 21
-3.9244426314
 31
0.0
  0
LINE
  5
259
330
223
100
AcDbEntity
  8
0
  6
Continuous
 62
     7
370
    25
100
AcDbLine
 10
68.5658716148
 20
-3.9244426314
 30
0.0
 11
68.2852473108
 21
-4.1719300049
 31
0.0
  0
LINE
  5
25A
330
223
100
AcDbEntity
  8
0
  6
Continuous
 62
     7
370
    25
100
AcDbLine
 10
81.8331477379
 20
-9.1452476989
 30
0.0
 11
81.8331477379
 21
-4.9968879158
 31
0.0
  0
LINE
  5
25B
330
223
100
AcDbEntity
  8
0
  6
Continuous
 62
     7
370
    25
100
AcDbLine
 10
67.8331477379
 20
-4.9968879158
 30
0.0
 11
67.8331477379
 21
-9.1452476989
 31
0.0
  0
LINE
  5
25C
330
223
100
AcDbEntity
  8
0
  6
Continuous
 62
     7
370
    25
100
AcDbLine
 10
68.2852473108
 20
-9.9702056099
 30
0.0
 11
68.5658716148
 21
-10.2176929833
 31
0.0
  0
LINE
  5
25D
330
223
100
AcDbEntity
  8
0
  6
Continuous
 62
     7
370
    25
100
AcDbLine
 10
81.100423861
 20
-10.2176929833
 30
0.0
 11
81.381048165
 21
-9.9702056099
 31
0.0
  0
LINE
  5
25E
330
223
100
AcDbEntity
  8
0
  6
Continuous
 62
     7
370
    25
100
AcDbLine
 10
78.2941808208
 20
-4.2779960219
 30
0.0
 11
78.2331477379
 21
-4.2241699022
 31
0.0
  0
LINE
  5
25F
330
223
100
AcDbEntity
  8
0
  6
Continuous
 62
     7
370
    25
100
AcDbLine
 10
71.4331477379
 20
-4.2241699022
 30
0.0
 11
71.372114655
 21
-4.2779960219
 31
0.0
  0
LINE
  5
260
330
223
100
AcDbEntity
  8
0
  6
Continuous
 62
     7
370
    25
100
AcDbLine
 10
-71.4331477379
 20
14.1421356195
 30
0.0
 11
-71.4331477379
 21
28.8499566686
 31
0.0
  0
LINE
  5
261
330
223
100
AcDbEntity
  8
0
  6
Continuous
 62
     7
370
    25
100
AcDbLine
 10
-78.2331477379
 20
28.8499566686
 30
0.0
 11
-78.2331477379
 21
14.1421356195
 31
0.0
  0
LINE
  5
262
330
223
100
AcDbEntity
  8
0
  6
Continuous
 62
     7
370
    25
100
AcDbLine
 10
-68.2852473108
 20
14.6842508179
 30
0.0
 11
-68.5658716148
 21
14.9317381914
 31
0.0
  0
LINE
  5
263
330
223
100
AcDbEntity
  8
0
  6
Continuous
 62
     7
370
    25
100
AcDbLine
 10
-81.100423861
 20
14.9317381914
 30
0.0
 11
-81.381048165
 21
14.6842508179
 31
0.0
  0
LINE
  5
264
330
223
100
AcDbEntity
  8
0
  6
Continuous
 62
     7
370
    25
100
AcDbLine
 10
-67.8331477379
 20
9.7109331239
 30
0.0
 11
-67.8331477379
 21
13.859292907
 31
0.0
  0
LINE
  5
265
330
223
100
AcDbEntity
  8
0
  6
Continuous
 62
     7
370
    25
100
AcDbLine
 10
-81.8331477379
 20
13.859292907
 30
0.0
 11
-81.8331477379
 21
9.7109331239
 31
0.0
  0
LINE
  5
266
330
223
100
AcDbEntity
  8
0
  6
Continuous
 62
     7
370
    25
100
AcDbLine
 10
-81.381048165
 20
8.8859752129
 30
0.0
 11
-81.100423861
 21
8.6384878395
 31
0.0
  0
LINE
  5
267
330
223
100
AcDbEntity
  8
0
  6
Continuous
 62
     7
370
    25
100
AcDbLine
 10
-68.5658716148
 20
8.6384878395
 30
0.0
 11
-68.2852473108
 21
8.8859752129
 31
0.0
  0
ARC
  5
268
330
223
100
AcDbEntity
  8
0
  6
Continuous
 62
     7
370
    25
100
AcDbCircle
 10
72.6634270914
 20
-4.4224738965
 30
0.0
 40
7.097501331288172
100
AcDbArc
 50
234.7374772271
 51
268.3926251348
  0
ARC
  5
269
330
223
100
AcDbEntity
  8
0
  6
Continuous
 62
     7
370
    25
100
AcDbCircle
 10
74.9639129248
 20
1.2176551328
 30
0.0
 40
12.97782543447881
100
AcDbArc
 50
258.8952470181
 51
298.219186146
  0
VIEWPORT
  5
2BD
330
223
100
AcDbEntity
  8
0
100
AcDbViewport
 10
0.0
 20
0.0
 30
0.0
 40
205.6
 41
156.0
 68
     1
 69
     1
 12
0.0
 22
0.0
 13
0.0
 23
0.0
 14
10.0
 24
10.0
 15
10.0
 25
10.0
 16
0.0
 26
0.0
 36
1.0
 17
0.0
 27
0.0
 37
0.0
 42
50.0
 43
0.0
 44
0.0
 45
134.6638132296
 50
0.0
 51
0.0
 72
   100
 90
   557152
  1

281
     0
 71
     1
 74
     0
110
0.0
120
0.0
130
0.0
111
1.0
121
0.0
131
0.0
112
0.0
122
1.0
132
0.0
 79
     0
146
0.0
  0
ENDBLK
  5
226
330
223
100
AcDbEntity
  8
0
100
AcDbBlockEnd
  0
BLOCK
  5
26C
330
26A
100
AcDbEntity
  8
0
100
AcDbBlockBegin
  2
*Paper_Space7
 70
     0
 10
0.0
 20
0.0
 30
0.0
  3
*Paper_Space7
  1

  0
SPLINE
  5
26E
330
26A
100
AcDbEntity
  8
0
  6
Continuous
 62
     7
370
    25
100
AcDbSpline
210
0.0
220
0.0
230
1.0
 70
     8
 71
     3
 72
    24
 73
    20
 74
     0
 42
0.000000001
 43
0.00000001
 40
0.0
 40
0.0
 40
0.0
 40
0.0
 40
0.0354519487760329
 40
0.0979661181748681
 40
0.1604668921318013
 40
0.2229672235901688
 40
0.2854280023635544
 40
0.3478479490574772
 40
0.4102515690333614
 40
0.4726793856288898
 40
0.5351753410057167
 40
0.5977786957933529
 40
0.6605377659639209
 40
0.7234905827169124
 40
0.7866549139907315
 40
0.8500149027843344
 40
0.9134922115253122
 40
0.9769084053034677
 40
1.0
 40
1.0
 40
1.0
 40
1.0
 10
44.32123841760445
 20
-39.18268838725874
 30
0.0
 10
44.53060181278835
 20
-39.23524256530877
 30
0.0
 10
45.10914600632911
 20
-39.3804681169409
 30
0.0
 10
46.08873779098631
 20
-39.5498817079608
 30
0.0
 10
47.26120924877738
 20
-39.66712542986167
 30
0.0
 10
48.45543642657237
 20
-39.69828335403464
 30
0.0
 10
49.66131122030927
 20
-39.64558775753036
 30
0.0
 10
50.86956219203837
 20
-39.50976733888682
 30
0.0
 10
52.07098199202782
 20
-39.29240984193934
 30
0.0
 10
53.25665794283887
 20
-38.99522194280619
 30
0.0
 10
54.41775809557783
 20
-38.62017828876149
 30
0.0
 10
55.5455848150051
 20
-38.16944578680341
 30
0.0
 10
56.63152946428148
 20
-37.64536726230152
 30
0.0
 10
57.66706541432968
 20
-37.05047040976578
 30
0.0
 10
58.64340730128705
 20
-36.38751897335085
 30
0.0
 10
59.55191331811039
 20
-35.66001430375879
 30
0.0
 10
60.38172441847146
 20
-34.8716874230207
 30
0.0
 10
60.97088282908096
 20
-34.2077744769454
 30
0.0
 10
61.27693254507571
 20
-33.80674600455462
 30
0.0
 10
61.35862664595783
 20
-33.69969914658382
 30
0.0
  0
SPLINE
  5
26F
330
26A
100
AcDbEntity
  8
0
  6
Continuous
 62
     7
370
    25
100
AcDbSpline
210
0.0
220
0.0
230
1.0
 70
     8
 71
     3
 72
    22
 73
    18
 74
     0
 42
0.000000001
 43
0.00000001
 40
0.0
 40
0.0
 40
0.0
 40
0.0
 40
0.0343016820486804
 40
0.1031042995012206
 40
0.1719889135336941
 40
0.241032658151197
 40
0.310462181082332
 40
0.3803368732728378
 40
0.4506176926014598
 40
0.5212084356600996
 40
0.5919808536084789
 40
0.6627906436410741
 40
0.7334505019821276
 40
0.8038066258284119
 40
0.8737367484997233
 40
0.943154637872483
 40
0.9999999999999999
 40
0.9999999999999999
 40
0.9999999999999999
 40
0.9999999999999999
 10
55.90838311596399
 20
-29.63339302631196
 30
0.0
 10
55.85482672294334
 20
-29.70275193649852
 30
0.0
 10
55.69384644278187
 20
-29.91123156262306
 30
0.0
 10
55.35850787085002
 20
-30.27165022933831
 30
0.0
 10
54.87325252406102
 20
-30.70301567651933
 30
0.0
 10
54.30557951650903
 20
-31.12128271287517
 30
0.0
 10
53.66464556861215
 20
-31.51451340005512
 30
0.0
 10
52.95913343347817
 20
-31.87280322336082
 30
0.0
 10
52.20037805062734
 20
-32.18713080087591
 30
0.0
 10
51.40129815270521
 20
-32.44989152637558
 30
0.0
 10
50.57618108016592
 20
-32.65508412574379
 30
0.0
 10
49.74033598889402
 20
-32.7985167310802
 30
0.0
 10
48.90979042847955
 20
-32.87790996945263
 30
0.0
 10
48.10008551835994
 20
-32.89348617626742
 30
0.0
 10
47.32827031975054
 20
-32.84641453836666
 30
0.0
 10
46.64483469342812
 20
-32.75072147012452
 30
0.0
 10
46.24753795112394
 20
-32.65440771166111
 30
0.0
 10
46.06866977752619
 20
-32.61104600179969
 30
0.0
  0
SPLINE
  5
27A
330
26A
100
AcDbEntity
  8
0
  6
Continuous
 62
     7
370
    25
100
AcDbSpline
210
0.0
220
0.0
230
1.0
 70
     8
 71
     3
 72
    26
 73
    22
 74
     0
 42
0.000000001
 43
0.00000001
 40
0.0
 40
0.0
 40
0.0
 40
0.0
 40
0.0339523994089402
 40
0.0918058657654257
 40
0.1491506655685256
 40
0.2055343190307048
 40
0.2608570722755523
 40
0.3151421044616874
 40
0.3685188071337977
 40
0.4211939445938442
 40
0.473422073053419
 40
0.5254494001472645
 40
0.5775037522071386
 40
0.6298634750814793
 40
0.6827779641803661
 40
0.7364463473036005
 40
0.7909946429989952
 40
0.8464569153151823
 40
0.9027696532318005
 40
0.9597872769087392
 40
1.0
 40
1.0
 40
1.0
 40
1.0
 10
-81.37498784985047
 20
6.870916482714462
 30
0.0
 10
-81.49909658530238
 20
6.698595925054172
 30
0.0
 10
-81.83468140715789
 20
6.232648355498355
 30
0.0
 10
-82.3003960886123
 20
5.437516766039595
 30
0.0
 10
-82.73698888442236
 20
4.485657039307469
 30
0.0
 10
-83.05704229472877
 20
3.514949333506356
 30
0.0
 10
-83.25980459056392
 20
2.539144555581024
 30
0.0
 10
-83.34543575539011
 20
1.56877766503837
 30
0.0
 10
-83.31641486833169
 20
0.613569992298401
 30
0.0
 10
-83.17619205722609
 20
-0.3180479332943898
 30
0.0
 10
-82.92884706615654
 20
-1.218594429902801
 30
0.0
 10
-82.57877247973501
 20
-2.08132815044699
 30
0.0
 10
-82.13037526569609
 20
-2.900486966584841
 30
0.0
 10
-81.58769581141993
 20
-3.671232364775004
 30
0.0
 10
-80.95415624529234
 20
-4.389359186791848
 30
0.0
 10
-80.23297750864891
 20
-5.050662588238139
 30
0.0
 10
-79.42758652513751
 20
-5.650505062159883
 30
0.0
 10
-78.5425853204121
 20
-6.184446158074207
 30
0.0
 10
-77.58305526653812
 20
-6.645823331839339
 30
0.0
 10
-76.66341916020458
 20
-6.996610313764157
 30
0.0
 10
-76.05382737752254
 20
-7.169792520289943
 30
0.0
 10
-75.80171117748321
 20
-7.241417566860607
 30
0.0
  0
SPLINE
  5
27B
330
26A
100
AcDbEntity
  8
0
  6
Continuous
 62
     7
370
    25
100
AcDbSpline
210
0.0
220
0.0
230
1.0
 70
     8
 71
     3
 72
    21
 73
    17
 74
     0
 42
0.000000001
 43
0.00000001
 40
0.0
 40
0.0
 40
0.0
 40
0.0
 40
0.0351611244135002
 40
0.1045991647284073
 40
0.1739241758850972
 40
0.243534762236794
 40
0.3142679100543497
 40
0.3875974550102939
 40
0.4661196096734045
 40
0.554929184219799
 40
0.665821585812134
 40
0.7480130662720845
 40
0.8222208348904206
 40
0.8917956375235547
 40
0.9654290701667666
 40
1.0
 40
1.0
 40
1.0
 40
1.0
 10
-74.05427981756146
 20
-0.6697751814015509
 30
0.0
 10
-74.15848381345329
 20
-0.6404663107888974
 30
0.0
 10
-74.46847534852095
 20
-0.55327673888661
 30
0.0
 10
-74.92939531721173
 20
-0.3785016251162155
 30
0.0
 10
-75.39937876571895
 20
-0.1441581203793733
 30
0.0
 10
-75.77858802054169
 20
0.1046773780048992
 30
0.0
 10
-76.06917666707578
 20
0.3541066189869206
 30
0.0
 10
-76.27774693946739
 20
0.5936342391517826
 30
0.0
 10
-76.41705518051293
 20
0.81952679309495
 30
0.0
 10
-76.5034726904729
 20
1.04565342428002
 30
0.0
 10
-76.53832763602045
 20
1.274323473644784
 30
0.0
 10
-76.52021644182243
 20
1.55383854403047
 30
0.0
 10
-76.44821601192724
 20
1.853707967104155
 30
0.0
 10
-76.30729501017252
 20
2.201233917250609
 30
0.0
 10
-76.1256256967413
 20
2.525482328808192
 30
0.0
 10
-75.97338478049052
 20
2.737023628707655
 30
0.0
 10
-75.92474431985663
 20
2.804610362442608
 30
0.0
  0
LWPOLYLINE
  5
284
330
26A
100
AcDbEntity
  8
0
  6
Continuous
 62
     7
370
    25
100
AcDbPolyline
 90
       18
 70
   128
 43
0.0
 10
68.9376371989
 20
-23.5412280408
 10
69.1015074243
 20
-23.2360138299
 10
69.1811201411
 20
-22.8421200533
 10
69.1534397491
 20
-22.400010412
 10
69.01946669
 20
-21.9256639003
 10
68.7840430989
 20
-21.436224637
 10
68.4556777981
 20
-20.9493822324
 10
68.0462387648
 20
-20.4827324393
 10
67.5705241927
 20
-20.0531411972
 10
67.0457276458
 20
-19.6761350528
 10
66.4908166386
 20
-19.3653399905
 10
65.9258471008
 20
-19.1319889535
 10
65.3712385034
 20
-18.9845158565
 10
64.8470358462
 20
-18.9282507612
 10
64.3721851791
 20
-18.9652272349
 10
63.9638488423
 20
-19.0941088515
 10
63.636785175
 20
-19.3102374934
 10
63.4873936689
 20
-19.4749219206
  0
LWPOLYLINE
  5
285
330
26A
100
AcDbEntity
  8
0
  6
Continuous
 62
     7
370
    25
100
AcDbPolyline
 90
       37
 70
   128
 43
0.0
 10
60.6995282578
 20
-20.7449317586
 10
60.4990339233
 20
-20.2308312896
 10
60.3164969223
 20
-19.5472445958
 10
60.2417754271
 20
-18.8951628483
 10
60.2762028446
 20
-18.2862224613
 10
60.4191648167
 20
-17.7312899904
 10
60.6681101837
 20
-17.2402682188
 10
61.0185965095
 20
-16.8219194414
 10
61.4643693574
 20
-16.4837091023
 10
61.9974739003
 20
-16.2316725729
 10
62.6083968751
 20
-16.0703074511
 10
63.2862363468
 20
-16.0024933012
 10
64.0188962539
 20
-16.0294402684
 10
64.7933022631
 20
-16.1506674835
 10
65.5956350808
 20
-16.3640116438
 10
66.4115770588
 20
-16.6656656178
 10
67.2265676932
 20
-17.0502463832
 10
68.0260634568
 20
-17.5108910872
 10
68.7957973289
 20
-18.0393795139
 10
69.5220333902
 20
-18.6262807751
 10
70.1918119409
 20
-19.2611216037
 10
70.793180767
 20
-19.9325732501
 10
71.3154084276
 20
-20.6286536439
 10
71.7491757576
 20
-21.3369412138
 10
72.0867421688
 20
-22.0447965514
 10
72.3220837806
 20
-22.7395879614
 10
72.4510009164
 20
-23.4089168748
 10
72.4711930467
 20
-24.0408391011
 10
72.3822998426
 20
-24.6240779732
 10
72.1859076053
 20
-25.1482255797
 10
71.8855209591
 20
-25.6039284941
 10
71.4865003107
 20
-25.9830546871
 10
70.9959661931
 20
-26.2788386429
 10
70.4226721991
 20
-26.4860020896
 10
69.7768487738
 20
-26.6008481907
 10
69.0700206514
 20
-26.6213275149
 10
68.5142856017
 20
-26.5753493245
  0
LWPOLYLINE
  5
286
330
26A
100
AcDbEntity
  8
0
  6
Continuous
 62
     7
370
    25
100
AcDbPolyline
 90
       40
 70
   128
 43
0.0
 10
66.9248394111
 20
-26.2390667662
 10
67.3289284718
 20
-26.3576256679
 10
68.1013169607
 20
-26.5206034766
 10
68.8385206509
 20
-26.5902073634
 10
69.5268068325
 20
-26.5651407398
 10
70.1533540362
 20
-26.4458705493
 10
70.7064908731
 20
-26.2346185701
 10
71.1759134505
 20
-25.9353200268
 10
71.552877314
 20
-25.5535502849
 10
71.83036034
 20
-25.0964209925
 10
72.0031935447
 20
-24.5724476033
 10
72.0681573727
 20
-23.9913907501
 10
72.0240416706
 20
-23.3640744227
 10
71.8716682306
 20
-22.7021843375
 10
71.6138754814
 20
-22.0180502542
 10
71.2554656144
 20
-21.3244162966
 10
70.8031151271
 20
-20.6342035527
 10
70.2652504533
 20
-19.9602693801
 10
69.6518909942
 20
-19.3151678973
 10
68.9744624759
 20
-18.7109161242
 10
68.24558411
 20
-18.1587701283
 10
67.4788335214
 20
-17.6690153447
 10
66.6884938228
 20
-17.2507749782
 10
65.8892875474
 20
-16.9118400557
 10
65.0961023959
 20
-16.6585242935
 10
64.3237139071
 20
-16.4955464848
 10
63.5865102169
 20
-16.425942598
 10
62.8982240353
 20
-16.4510092217
 10
62.2716768316
 20
-16.5702794121
 10
61.7185399947
 20
-16.7815313913
 10
61.2491174172
 20
-17.0808299346
 10
60.8721535538
 20
-17.4625996765
 10
60.5946705278
 20
-17.9197289689
 10
60.421837323
 20
-18.4437023582
 10
60.3568734951
 20
-19.0247592113
 10
60.4009891972
 20
-19.6520755387
 10
60.5533626372
 20
-20.3139656239
 10
60.8111553863
 20
-20.9980997072
 10
61.1695652534
 20
-21.6917336648
 10
61.4745958811
 20
-22.1727606459
  0
LWPOLYLINE
  5
287
330
26A
100
AcDbEntity
  8
0
  6
Continuous
 62
     7
370
    25
100
AcDbPolyline
 90
       25
 70
   128
 43
0.0
 10
74.1064800903
 20
-22.6334133272
 10
74.3235772485
 20
-22.2830157806
 10
74.5199694857
 20
-21.7588681741
 10
74.6088626898
 20
-21.175629302
 10
74.5886705595
 20
-20.5437070757
 10
74.4597534238
 20
-19.8743781624
 10
74.224411812
 20
-19.1795867523
 10
73.8868454008
 20
-18.4717314147
 10
73.4530780707
 20
-17.7634438448
 10
72.9308504102
 20
-17.0673634511
 10
72.329481584
 20
-16.3959118046
 10
71.6597030333
 20
-15.761070976
 10
70.933466972
 20
-15.1741697149
 10
70.1637331
 20
-14.6456812881
 10
69.3642373363
 20
-14.1850365842
 10
68.5492467019
 20
-13.8004558188
 10
67.7333047239
 20
-13.4988018447
 10
66.9309719062
 20
-13.2854576844
 10
66.156565897
 20
-13.1642304694
 10
65.4239059899
 20
-13.1372835022
 10
64.7460665182
 20
-13.205097652
 10
64.1351435435
 20
-13.3664627739
 10
63.6020390005
 20
-13.6184993033
 10
63.1562661526
 20
-13.9567096424
 10
62.8853904697
 20
-14.261606609
  0
LWPOLYLINE
  5
28A
330
26A
100
AcDbEntity
  8
0
  6
Continuous
 62
     7
370
    25
100
AcDbPolyline
 90
       13
 70
   128
 43
0.0
 10
-68.4914839699
 20
12.7677262546
 10
-68.4069054111
 20
12.8986060427
 10
-68.2744852367
 20
13.2629233702
 10
-68.2484009626
 20
13.6828264328
 10
-68.3295953426
 20
14.1431388395
 10
-68.5151338002
 20
14.6272237007
 10
-68.7983104922
 20
15.1175849283
 10
-69.168890675
 20
15.5964995898
 10
-69.6134806153
 20
16.0466584616
 10
-70.1160116744
 20
16.4517916292
 10
-70.6583210704
 20
16.7972565244
 10
-71.2208083288
 20
17.0705671457
 10
-71.7831436944
 20
17.2618453351
  0
LWPOLYLINE
  5
28B
330
26A
100
AcDbEntity
  8
0
  6
Continuous
 62
     7
370
    25
100
AcDbPolyline
 90
       24
 70
   128
 43
0.0
 10
-72.0915070104
 20
20.2582844897
 10
-71.2805586665
 20
20.0002091089
 10
-70.4632672493
 20
19.6563238016
 10
-69.6542173437
 20
19.2327652092
 10
-68.8678464642
 20
18.7370917448
 10
-68.1181874179
 20
18.1781487132
 10
-67.4186178882
 20
17.565910466
 10
-66.78162171
 20
16.9113024092
 10
-66.2185660951
 20
16.2260060392
 10
-65.7394987844
 20
15.5222504858
 10
-65.3529687453
 20
14.8125942836
 10
-65.0658736155
 20
14.1097012643
 10
-64.8833366145
 20
13.4261145706
 10
-64.8086151193
 20
12.7740328231
 10
-64.8430425368
 20
12.1650924361
 10
-64.9860045089
 20
11.6101599652
 10
-65.2349498758
 20
11.1191381935
 10
-65.5854362016
 20
10.7007894162
 10
-66.0312090495
 20
10.3625790771
 10
-66.5643135925
 20
10.1105425477
 10
-67.1752365673
 20
9.9491774258
 10
-67.8530760389
 20
9.881363276
 10
-68.5857359461
 20
9.9083102432
 10
-68.7690853641
 20
9.9289601845
  0
LWPOLYLINE
  5
28C
330
26A
100
AcDbEntity
  8
0
  6
Continuous
 62
     7
370
    25
100
AcDbPolyline
 90
       15
 70
   128
 43
0.0
 10
-76.583842708
 20
15.7593777504
 10
-76.653581861
 20
15.9236665261
 10
-76.8889234728
 20
16.6184579362
 10
-77.0178406085
 20
17.2877868495
 10
-77.0380327388
 20
17.9197090758
 10
-76.9491395347
 20
18.5029479479
 10
-76.7527472975
 20
19.0270955544
 10
-76.4523606512
 20
19.4827984689
 10
-76.0533400029
 20
19.8619246619
 10
-75.5628058852
 20
20.1577086176
 10
-74.9895118913
 20
20.3648720644
 10
-74.343688466
 20
20.4797181655
 10
-73.6368603436
 20
20.5001974896
 10
-72.8816408887
 20
20.4259445828
 10
-72.0915070104
 20
20.2582844897
  0
LWPOLYLINE
  5
28D
330
26A
100
AcDbEntity
  8
0
  6
Continuous
 62
     7
370
    25
100
AcDbPolyline
 90
       16
 70
   128
 43
0.0
 10
-72.1872685699
 20
19.8457852156
 10
-72.9596570588
 20
20.0087630242
 10
-73.6968607489
 20
20.0783669111
 10
-74.3851469305
 20
20.0533002874
 10
-75.0116941343
 20
19.9340300969
 10
-75.5648309712
 20
19.7227781177
 10
-76.0342535486
 20
19.4234795744
 10
-76.411217412
 20
19.0417098325
 10
-76.688700438
 20
18.5845805401
 10
-76.8615336428
 20
18.0606071509
 10
-76.9264974707
 20
17.4795502977
 10
-76.8823817686
 20
16.8522339704
 10
-76.7300083286
 20
16.1903438851
 10
-76.4722155795
 20
15.5062098019
 10
-76.1138057124
 20
14.8125758442
 10
-75.8087750848
 20
14.3315488631
  0
LWPOLYLINE
  5
28E
330
26A
100
AcDbEntity
  8
0
  6
Continuous
 62
     7
370
    25
100
AcDbPolyline
 90
       25
 70
   128
 43
0.0
 10
-70.3585315548
 20
10.2652427428
 10
-69.954442494
 20
10.1466838411
 10
-69.1820540051
 20
9.9837060324
 10
-68.4448503149
 20
9.9141021456
 10
-67.7565641333
 20
9.9391687693
 10
-67.1300169296
 20
10.0584389597
 10
-66.5768800927
 20
10.2696909389
 10
-66.1074575153
 20
10.5689894822
 10
-65.7304936518
 20
10.9507592241
 10
-65.4530106258
 20
11.4078885165
 10
-65.2801774211
 20
11.9318619058
 10
-65.2152135931
 20
12.5129187589
 10
-65.2593292952
 20
13.1402350863
 10
-65.4117027353
 20
13.8021251715
 10
-65.6694954844
 20
14.4862592548
 10
-66.0279053514
 20
15.1798932125
 10
-66.4802558387
 20
15.8701059563
 10
-67.0181205125
 20
16.5440401289
 10
-67.6314799716
 20
17.1891416118
 10
-68.3089084899
 20
17.7933933848
 10
-69.0377868558
 20
18.3455393807
 10
-69.8045374444
 20
18.8352941644
 10
-70.594877143
 20
19.2535345308
 10
-71.3940834184
 20
19.5924694533
 10
-72.1872685699
 20
19.8457852156
  0
LWPOLYLINE
  5
290
330
26A
100
AcDbEntity
  8
0
  6
Continuous
 62
     7
370
    25
100
AcDbPolyline
 90
       18
 70
   128
 43
0.0
 10
-63.1768908756
 20
13.8708961818
 10
-63.0972802327
 20
13.9843479926
 10
-62.8483348657
 20
14.4753697642
 10
-62.7053728936
 20
15.0303022351
 10
-62.6709454761
 20
15.6392426221
 10
-62.7456669713
 20
16.2913243696
 10
-62.9282039724
 20
16.9749110634
 10
-63.2152991021
 20
17.6778040826
 10
-63.6018291412
 20
18.3874602848
 10
-64.080896452
 20
19.0912158382
 10
-64.6439520669
 20
19.7765122083
 10
-65.2809482451
 20
20.431120265
 10
-65.9805177748
 20
21.0433585122
 10
-66.7301768211
 20
21.6023015438
 10
-67.5165477005
 20
22.0979750082
 10
-68.3255976062
 20
22.5215336006
 10
-69.1428890234
 20
22.865418908
 10
-69.9538373673
 20
23.1234942888
  0
LWPOLYLINE
  5
291
330
26A
100
AcDbEntity
  8
0
  6
Continuous
 62
     7
370
    25
100
AcDbPolyline
 90
       15
 70
   128
 43
0.0
 10
-71.687382135
 20
17.6743446093
 10
-71.0935390548
 20
17.4736303066
 10
-70.4989235144
 20
17.1885512619
 10
-69.9237844329
 20
16.8288155002
 10
-69.387707482
 20
16.4066733915
 10
-68.9089481191
 20
15.9365004789
 10
-68.5038099203
 20
15.4343079372
 10
-68.186089381
 20
14.9171973308
 10
-67.966606093
 20
14.4027782415
 10
-67.8528342966
 20
13.9085685942
 10
-67.8486483537
 20
13.4513981058
 10
-67.9541908117
 20
13.046835169
 10
-68.1658675487
 20
12.7086566892
 10
-68.4764701673
 20
12.4483789292
 10
-68.8545632777
 20
12.2810755721
  0
LWPOLYLINE
  5
292
330
26A
100
AcDbEntity
  8
0
  6
Continuous
 62
     7
370
    25
100
AcDbPolyline
 90
        9
 70
   128
 43
0.0
 10
-74.3048068077
 20
16.3473816924
 10
-74.2930627101
 20
16.5410709508
 10
-74.1875202522
 20
16.9456338877
 10
-73.9758435152
 20
17.2838123674
 10
-73.6652408966
 20
17.5440901275
 10
-73.266289596
 20
17.7176037209
 10
-72.7925754215
 20
17.7984443504
 10
-72.2602301411
 20
17.7838590853
 10
-71.687382135
 20
17.6743446093
  0
LWPOLYLINE
  5
294
330
26A
100
AcDbEntity
  8
0
  6
Continuous
 62
     7
370
    25
100
AcDbPolyline
 90
        3
 70
   128
 43
0.0
 10
-70.7053045921
 20
23.2892430451
 10
-70.5304870097
 20
23.2646832504
 10
-69.7580985208
 20
23.1017054418
  0
LWPOLYLINE
  5
295
330
26A
100
AcDbEntity
  8
0
  6
Continuous
 62
     8
370
    25
100
AcDbPolyline
 90
       18
 70
   128
 43
0.0
 10
46.0655627233
 20
-32.6102272404
 10
45.7707222217
 20
-32.5937973227
 10
45.4483099728
 20
-32.6949480375
 10
45.1167407825
 20
-32.9118244531
 10
44.7879984253
 20
-33.2365880909
 10
44.4739645063
 20
-33.6575011468
 10
44.1859890296
 20
-34.1593507262
 10
43.9344801794
 20
-34.7239986779
 10
43.7285281407
 20
-35.3310371536
 10
43.5755765568
 20
-35.9585262013
 10
43.4811534964
 20
-36.5837867318
 10
43.4486716551
 20
-37.1842202005
 10
43.4793050111
 20
-37.7381253773
 10
43.5719463952
 20
-38.2254826862
 10
43.7232475064
 20
-38.6286777639
 10
43.9277399283
 20
-38.9331380901
 10
44.1780327719
 20
-39.1278596752
 10
44.3208011463
 20
-39.1825719676
  0
LWPOLYLINE
  5
296
330
26A
100
AcDbEntity
  8
0
  6
Continuous
 62
     8
370
    25
100
AcDbPolyline
 90
       18
 70
   128
 43
0.0
 10
55.9088986185
 20
-29.6327026134
 10
56.057774622
 20
-29.4687085992
 10
56.3848382894
 20
-29.2525799572
 10
56.7931746262
 20
-29.1236983406
 10
57.2680252933
 20
-29.0867218669
 10
57.7922279505
 20
-29.1429869622
 10
58.3468365478
 20
-29.2904600593
 10
58.9118060857
 20
-29.5238110962
 10
59.4667170928
 20
-29.8346061585
 10
59.9915136398
 20
-30.2116123029
 10
60.4672282119
 20
-30.6412035451
 10
60.8766672451
 20
-31.1078533381
 10
61.205032546
 20
-31.5946957428
 10
61.440456137
 20
-32.0841350061
 10
61.5744291962
 20
-32.5584815178
 10
61.6021095881
 20
-33.0005911591
 10
61.5224968713
 20
-33.3944849356
 10
61.3553548756
 20
-33.7040629191
  0
LWPOLYLINE
  5
297
330
26A
100
AcDbEntity
  8
0
  6
Continuous
 62
     8
370
    25
100
AcDbPolyline
 90
       18
 70
   128
 43
0.0
 10
-74.0542798176
 20
-0.6697751814
 10
-74.3522273734
 20
-0.6525265023
 10
-74.6746396223
 20
-0.7536772171
 10
-75.0062088125
 20
-0.9705536327
 10
-75.3349511698
 20
-1.2953172705
 10
-75.6489850888
 20
-1.7162303264
 10
-75.9369605655
 20
-2.2180799058
 10
-76.1884694157
 20
-2.7827278575
 10
-76.3944214544
 20
-3.3897663332
 10
-76.5473730383
 20
-4.0172553809
 10
-76.6417960986
 20
-4.6425159114
 10
-76.67427794
 20
-5.2429493801
 10
-76.6436445839
 20
-5.7968545569
 10
-76.5510031999
 20
-6.2842118658
 10
-76.3997020887
 20
-6.6874069435
 10
-76.1952096668
 20
-6.9918672697
 10
-75.9449168232
 20
-7.1865888548
 10
-75.8017111775
 20
-7.2414175669
  0
LWPOLYLINE
  5
298
330
26A
100
AcDbEntity
  8
0
  6
Continuous
 62
     8
370
    25
100
AcDbPolyline
 90
       18
 70
   128
 43
0.0
 10
-75.9189088713
 20
2.8125015487
 10
-75.7608740945
 20
3.1098245734
 10
-75.6812613777
 20
3.50371835
 10
-75.7089417696
 20
3.9458279913
 10
-75.8429148288
 20
4.420174503
 10
-76.0783384198
 20
4.9096137662
 10
-76.4067037207
 20
5.3964561709
 10
-76.8161427539
 20
5.863105964
 10
-77.291857326
 20
6.2926972061
 10
-77.816653873
 20
6.6697033505
 10
-78.3715648802
 20
6.9804984128
 10
-78.936534418
 20
7.2138494497
 10
-79.4911430153
 20
7.3613225468
 10
-80.0153456725
 20
7.4175876421
 10
-80.4901963396
 20
7.3806111684
 10
-80.8985326764
 20
7.2517295518
 10
-81.2255963438
 20
7.0356009098
 10
-81.3755178155
 20
6.8702055783
  0
LINE
  5
299
330
26A
100
AcDbEntity
  8
0
  6
Continuous
 62
     7
370
    25
100
AcDbLine
 10
46.0686697775
 20
-32.6110460018
 30
0.0
 11
-74.0542798176
 21
-0.6697751814
 31
0.0
  0
LINE
  5
29A
330
26A
100
AcDbEntity
  8
0
  6
Continuous
 62
     7
370
    25
100
AcDbLine
 10
-75.8017111775
 20
-7.2414175669
 30
0.0
 11
44.3212384176
 21
-39.1826883873
 31
0.0
  0
LINE
  5
29B
330
26A
100
AcDbEntity
  8
0
  6
Continuous
 62
     7
370
    25
100
AcDbLine
 10
63.4873936689
 20
-19.4749219206
 30
0.0
 11
55.908383116
 21
-29.6333930263
 31
0.0
  0
LINE
  5
29C
330
26A
100
AcDbEntity
  8
0
  6
Continuous
 62
     7
370
    25
100
AcDbLine
 10
61.358626646
 20
-33.6996991466
 30
0.0
 11
68.9376371989
 21
-23.5412280408
 31
0.0
  0
LINE
  5
29D
330
26A
100
AcDbEntity
  8
0
  6
Continuous
 62
     7
370
    25
100
AcDbLine
 10
60.6995282578
 20
-20.7449317586
 30
0.0
 11
60.7962953712
 21
-20.964620744
 31
0.0
  0
LINE
  5
29E
330
26A
100
AcDbEntity
  8
0
  6
Continuous
 62
     7
370
    25
100
AcDbLine
 10
68.2761345431
 20
-26.5451632713
 30
0.0
 11
68.5142856017
 21
-26.5753493245
 31
0.0
  0
LINE
  5
29F
330
26A
100
AcDbEntity
  8
0
  6
Continuous
 62
     7
370
    25
100
AcDbLine
 10
62.8853904697
 20
-14.261606609
 30
0.0
 11
60.7477208265
 21
-17.126816408
 31
0.0
  0
LINE
  5
2A0
330
26A
100
AcDbEntity
  8
0
  6
Continuous
 62
     7
370
    25
100
AcDbLine
 10
71.9688104471
 20
-25.4986231262
 30
0.0
 11
74.1064800903
 21
-22.6334133272
 31
0.0
  0
LINE
  5
2A1
330
26A
100
AcDbEntity
  8
0
  6
Continuous
 62
     7
370
    25
100
AcDbLine
 10
74.1546726589
 20
-19.0152979766
 30
0.0
 11
74.0579055456
 21
-18.7956089913
 31
0.0
  0
LINE
  5
2A2
330
26A
100
AcDbEntity
  8
0
  6
Continuous
 62
     7
370
    25
100
AcDbLine
 10
66.5780663737
 20
-13.2150664639
 30
0.0
 11
66.3399153151
 21
-13.1848804107
 31
0.0
  0
LINE
  5
2A3
330
26A
100
AcDbEntity
  8
0
  6
Continuous
 62
     7
370
    25
100
AcDbLine
 10
-75.9247443199
 20
2.8046103624
 30
0.0
 11
-68.4914839699
 21
12.7677262546
 31
0.0
  0
LINE
  5
2A4
330
26A
100
AcDbEntity
  8
0
  6
Continuous
 62
     7
370
    25
100
AcDbLine
 10
-73.9417274999
 20
16.8340323749
 30
0.0
 11
-81.3749878499
 21
6.8709164827
 31
0.0
  0
LINE
  5
2A5
330
26A
100
AcDbEntity
  8
0
  6
Continuous
 62
     7
370
    25
100
AcDbLine
 10
-76.583842708
 20
15.7593777504
 30
0.0
 11
-76.4870755947
 21
15.5396887651
 31
0.0
  0
LINE
  5
2A6
330
26A
100
AcDbEntity
  8
0
  6
Continuous
 62
     7
370
    25
100
AcDbLine
 10
-69.0072364227
 20
9.9591462377
 30
0.0
 11
-68.7690853641
 21
9.9289601845
 31
0.0
  0
LINE
  5
2A7
330
26A
100
AcDbEntity
  8
0
  6
Continuous
 62
     7
370
    25
100
AcDbLine
 10
-74.3979804961
 20
22.2427029
 30
0.0
 11
-76.5356501393
 21
19.377493101
 31
0.0
  0
LINE
  5
2A8
330
26A
100
AcDbEntity
  8
0
  6
Continuous
 62
     7
370
    25
100
AcDbLine
 10
-65.3145605187
 20
11.0056863828
 30
0.0
 11
-63.1768908756
 21
13.8708961818
 31
0.0
  0
LINE
  5
2A9
330
26A
100
AcDbEntity
  8
0
  6
Continuous
 62
     7
370
    25
100
AcDbLine
 10
-63.1286983069
 20
17.4890115324
 30
0.0
 11
-63.2254654202
 21
17.7087005178
 31
0.0
  0
LINE
  5
2AA
330
26A
100
AcDbEntity
  8
0
  6
Continuous
 62
     7
370
    25
100
AcDbLine
 10
-70.7053045921
 20
23.2892430451
 30
0.0
 11
-70.9434556507
 21
23.3194290983
 31
0.0
  0
ARC
  5
2AB
330
26A
100
AcDbEntity
  8
0
  6
Continuous
 62
     7
370
    25
100
AcDbCircle
 10
64.9182575344
 20
-23.2428240464
 30
0.0
 40
10.16419635371113
100
AcDbArc
 50
25.9468566143
 51
80.6015330544
  0
ARC
  5
2AC
330
26A
100
AcDbEntity
  8
0
  6
Continuous
 62
     7
370
    25
100
AcDbCircle
 10
-72.5526906263
 20
15.4850818591
 30
0.0
 40
1.936256938044653
100
AcDbArc
 50
66.5817308193
 51
135.8387967891
  0
ARC
  5
2AD
330
26A
100
AcDbEntity
  8
0
  6
Continuous
 62
     7
370
    25
100
AcDbCircle
 10
-71.5314621897
 20
19.4314619449
 30
0.0
 40
4.014972342185279
100
AcDbArc
 50
66.8627267709
 51
135.5578008375
  0
ARC
  5
2AE
330
26A
100
AcDbEntity
  8
0
  6
Continuous
 62
     7
370
    25
100
AcDbCircle
 10
-72.4480193484
 20
13.1903174014
 30
0.0
 40
10.26992146730933
100
AcDbArc
 50
26.1015058652
 51
74.8158483578
  0
VIEWPORT
  5
2BF
330
26A
100
AcDbEntity
  8
0
100
AcDbViewport
 10
0.0
 20
0.0
 30
0.0
 40
205.6
 41
156.0
 68
     1
 69
     1
 12
0.0
 22
0.0
 13
0.0
 23
0.0
 14
10.0
 24
10.0
 15
10.0
 25
10.0
 16
0.0
 26
0.0
 36
1.0
 17
0.0
 27
0.0
 37
0.0
 42
50.0
 43
0.0
 44
0.0
 45
134.6638132296
 50
0.0
 51
0.0
 72
   100
 90
   557152
  1

281
     0
 71
     1
 74
     0
110
0.0
120
0.0
130
0.0
111
1.0
121
0.0
131
0.0
112
0.0
122
1.0
132
0.0
 79
     0
146
0.0
  0
ENDBLK
  5
26D
330
26A
100
AcDbEntity
  8
0
100
AcDbBlockEnd
  0
ENDSEC
  0
SECTION
  2
ENTITIES
  0
CIRCLE
  5
79
330
1F
100
AcDbEntity
  8
0
  6
Continuous
 62
     7
370
    25
100
AcDbCircle
 10
-80.0
 20
0.0
 30
0.0
 40
1.749999999999992
  0
CIRCLE
  5
7A
330
1F
100
AcDbEntity
  8
0
  6
Continuous
 62
     7
370
    25
100
AcDbCircle
 10
-80.0
 20
0.0
 30
0.0
 40
6.700000000000008
  0
CIRCLE
  5
7B
330
1F
100
AcDbEntity
  8
0
  6
Continuous
 62
     7
370
    25
100
AcDbCircle
 10
-80.0
 20
0.0
 30
0.0
 40
7.000000000000042
  0
CIRCLE
  5
7C
330
1F
100
AcDbEntity
  8
0
  6
Continuous
 62
     7
370
    25
100
AcDbCircle
 10
80.0
 20
0.0
 30
0.0
 40
1.749999999999992
  0
CIRCLE
  5
7D
330
1F
100
AcDbEntity
  8
0
  6
Continuous
 62
     7
370
    25
100
AcDbCircle
 10
80.0
 20
0.0
 30
0.0
 40
6.700000000000011
  0
CIRCLE
  5
7E
330
1F
100
AcDbEntity
  8
0
  6
Continuous
 62
     7
370
    25
100
AcDbCircle
 10
80.0
 20
0.0
 30
0.0
 40
7.000000000000036
  0
LINE
  5
81
330
1F
100
AcDbEntity
  8
0
  6
Continuous
 62
     7
370
    25
100
AcDbLine
 10
-73.8811765837
 20
-3.4
 30
0.0
 11
73.8811765837
 21
-3.4
 31
0.0
  0
LINE
  5
82
330
1F
100
AcDbEntity
  8
0
  6
Continuous
 62
     7
370
    25
100
AcDbLine
 10
73.8811765837
 20
3.4
 30
0.0
 11
-73.8811765837
 21
3.4
 31
0.0
  0
LINE
  5
83
330
1F
100
AcDbEntity
  8
0
  6
Continuous
 62
     8
370
    25
100
AcDbLine
 10
-70.0
 20
-3.4
 30
0.0
 11
-70.0
 21
3.4
 31
0.0
  0
LINE
  5
84
330
1F
100
AcDbEntity
  8
0
  6
Continuous
 62
     8
370
    25
100
AcDbLine
 10
70.0
 20
-3.4
 30
0.0
 11
70.0
 21
3.4
 31
0.0
  0
LINE
  5
AF
330
1B
100
AcDbEntity
 67
     1
  8
0
  6
Continuous
 62
     7
370
    25
100
AcDbLine
 10
73.0
 20
0.3
 30
0.0
 11
73.3
 21
0.0
 31
0.0
  0
LINE
  5
B0
330
1B
100
AcDbEntity
 67
     1
  8
0
  6
Continuous
 62
     7
370
    25
100
AcDbLine
 10
86.7
 20
0.0
 30
0.0
 11
87.0
 21
0.3
 31
0.0
  0
LINE
  5
B1
330
1B
100
AcDbEntity
 67
     1
  8
0
  6
Continuous
 62
     7
370
    25
100
AcDbLine
 10
87.0
 20
4.7
 30
0.0
 11
86.7
 21
5.0
 31
0.0
  0
LINE
  5
B2
330
1B
100
AcDbEntity
 67
     1
  8
0
  6
Continuous
 62
     7
370
    25
100
AcDbLine
 10
73.3
 20
5.0
 30
0.0
 11
73.0
 21
4.7
 31
0.0
  0
LINE
  5
B3
330
1B
100
AcDbEntity
 67
     1
  8
0
  6
Continuous
 62
     7
370
    25
100
AcDbLine
 10
87.0
 20
0.3
 30
0.0
 11
87.0
 21
4.7
 31
0.0
  0
LINE
  5
B4
330
1B
100
AcDbEntity
 67
     1
  8
0
  6
Continuous
 62
     7
370
    25
100
AcDbLine
 10
73.0
 20
4.7
 30
0.0
 11
73.0
 21
0.3
 31
0.0
  0
LINE
  5
B5
330
1B
100
AcDbEntity
 67
     1
  8
0
  6
Continuous
 62
     7
370
    25
100
AcDbLine
 10
-73.0
 20
4.7
 30
0.0
 11
-73.3
 21
5.0
 31
0.0
  0
LINE
  5
B6
330
1B
100
AcDbEntity
 67
     1
  8
0
  6
Continuous
 62
     7
370
    25
100
AcDbLine
 10
-86.7
 20
5.0
 30
0.0
 11
-87.0
 21
4.7
 31
0.0
  0
LINE
  5
B7
330
1B
100
AcDbEntity
 67
     1
  8
0
  6
Continuous
 62
     7
370
    25
100
AcDbLine
 10
-87.0
 20
0.3
 30
0.0
 11
-86.7
 21
0.0
 31
0.0
  0
LINE
  5
B8
330
1B
100
AcDbEntity
 67
     1
  8
0
  6
Continuous
 62
     7
370
    25
100
AcDbLine
 10
-73.3
 20
0.0
 30
0.0
 11
-73.0
 21
0.3
 31
0.0
  0
LINE
  5
B9
330
1B
100
AcDbEntity
 67
     1
  8
0
  6
Continuous
 62
     7
370
    25
100
AcDbLine
 10
-73.0
 20
0.3
 30
0.0
 11
-73.0
 21
4.7
 31
0.0
  0
LINE
  5
BA
330
1B
100
AcDbEntity
 67
     1
  8
0
  6
Continuous
 62
     7
370
    25
100
AcDbLine
 10
-87.0
 20
4.7
 30
0.0
 11
-87.0
 21
0.3
 31
0.0
  0
LINE
  5
BB
330
1B
100
AcDbEntity
 67
     1
  8
0
  6
Continuous
 62
     7
370
    25
100
AcDbLine
 10
83.7
 20
5.0
 30
0.0
 11
83.4
 21
5.3
 31
0.0
  0
LINE
  5
BC
330
1B
100
AcDbEntity
 67
     1
  8
0
  6
Continuous
 62
     7
370
    25
100
AcDbLine
 10
76.6
 20
5.3
 30
0.0
 11
76.3
 21
5.0
 31
0.0
  0
LINE
  5
BD
330
1B
100
AcDbEntity
 67
     1
  8
0
  6
Continuous
 62
     7
370
    25
100
AcDbLine
 10
76.6
 20
20.6
 30
0.0
 11
76.6
 21
5.3
 31
0.0
  0
LINE
  5
BE
330
1B
100
AcDbEntity
 67
     1
  8
0
  6
Continuous
 62
     7
370
    25
100
AcDbLine
 10
83.4
 20
5.3
 30
0.0
 11
83.4
 21
20.6
 31
0.0
  0
LINE
  5
BF
330
1B
100
AcDbEntity
 67
     1
  8
0
  6
Continuous
 62
     7
370
    25
100
AcDbLine
 10
-70.0
 20
27.2
 30
0.0
 11
70.0
 21
27.2
 31
0.0
  0
LINE
  5
C0
330
1B
100
AcDbEntity
 67
     1
  8
0
  6
Continuous
 62
     7
370
    25
100
AcDbLine
 10
70.0
 20
34.0
 30
0.0
 11
-70.0
 21
34.0
 31
0.0
  0
LINE
  5
C1
330
1B
100
AcDbEntity
 67
     1
  8
0
  6
Continuous
 62
     7
370
    25
100
AcDbLine
 10
-76.6
 20
5.0
 30
0.0
 11
-76.6
 21
20.6
 31
0.0
  0
LINE
  5
C2
330
1B
100
AcDbEntity
 67
     1
  8
0
  6
Continuous
 62
     7
370
    25
100
AcDbLine
 10
-83.4
 20
20.6
 30
0.0
 11
-83.4
 21
5.0
 31
0.0
  0
LINE
  5
C3
330
1B
100
AcDbEntity
 67
     1
  8
0
  6
Continuous
 62
     7
370
    25
100
AcDbLine
 10
86.7
 20
0.0
 30
0.0
 11
73.3
 21
0.0
 31
0.0
  0
LINE
  5
C4
330
1B
100
AcDbEntity
 67
     1
  8
0
  6
Continuous
 62
     7
370
    25
100
AcDbLine
 10
73.0
 20
0.3
 30
0.0
 11
87.0
 21
0.3
 31
0.0
  0
LINE
  5
C5
330
1B
100
AcDbEntity
 67
     1
  8
0
  6
Continuous
 62
     7
370
    25
100
AcDbLine
 10
87.0
 20
4.7
 30
0.0
 11
73.0
 21
4.7
 31
0.0
  0
LINE
  5
C6
330
1B
100
AcDbEntity
 67
     1
  8
0
  6
Continuous
 62
     7
370
    25
100
AcDbLine
 10
73.3
 20
5.0
 30
0.0
 11
86.7
 21
5.0
 31
0.0
  0
LINE
  5
C7
330
1B
100
AcDbEntity
 67
     1
  8
0
  6
Continuous
 62
     7
370
    25
100
AcDbLine
 10
-73.0
 20
4.7
 30
0.0
 11
-87.0
 21
4.7
 31
0.0
  0
LINE
  5
C8
330
1B
100
AcDbEntity
 67
     1
  8
0
  6
Continuous
 62
     7
370
    25
100
AcDbLine
 10
-86.7
 20
5.0
 30
0.0
 11
-73.3
 21
5.0
 31
0.0
  0
LINE
  5
C9
330
1B
100
AcDbEntity
 67
     1
  8
0
  6
Continuous
 62
     7
370
    25
100
AcDbLine
 10
-73.3
 20
0.0
 30
0.0
 11
-86.7
 21
0.0
 31
0.0
  0
LINE
  5
CA
330
1B
100
AcDbEntity
 67
     1
  8
0
  6
Continuous
 62
     7
370
    25
100
AcDbLine
 10
-87.0
 20
0.3
 30
0.0
 11
-73.0
 21
0.3
 31
0.0
  0
LINE
  5
CB
330
1B
100
AcDbEntity
 67
     1
  8
0
  6
Continuous
 62
     7
370
    25
100
AcDbLine
 10
76.6
 20
5.3
 30
0.0
 11
83.4
 21
5.3
 31
0.0
  0
LINE
  5
CC
330
1B
100
AcDbEntity
 67
     1
  8
0
  6
Continuous
 62
     8
370
    25
100
AcDbLine
 10
76.6
 20
20.6
 30
0.0
 11
83.4
 21
20.6
 31
0.0
  0
LINE
  5
CD
330
1B
100
AcDbEntity
 67
     1
  8
0
  6
Continuous
 62
     8
370
    25
100
AcDbLine
 10
70.0
 20
27.2
 30
0.0
 11
70.0
 21
34.0
 31
0.0
  0
LINE
  5
CE
330
1B
100
AcDbEntity
 67
     1
  8
0
  6
Continuous
 62
     8
370
    25
100
AcDbLine
 10
-70.0
 20
27.2
 30
0.0
 11
-70.0
 21
34.0
 31
0.0
  0
LINE
  5
CF
330
1B
100
AcDbEntity
 67
     1
  8
0
  6
Continuous
 62
     8
370
    25
100
AcDbLine
 10
-76.6
 20
20.6
 30
0.0
 11
-83.4
 21
20.6
 31
0.0
  0
ARC
  5
D0
330
1B
100
AcDbEntity
 67
     1
  8
0
  6
Continuous
 62
     7
370
    25
100
AcDbCircle
 10
70.0
 20
20.6
 30
0.0
 40
6.599999999999973
100
AcDbArc
 50
0.0
 51
90.0
  0
ARC
  5
D1
330
1B
100
AcDbEntity
 67
     1
  8
0
  6
Continuous
 62
     7
370
    25
100
AcDbCircle
 10
70.0
 20
20.6
 30
0.0
 40
13.39999999999999
100
AcDbArc
 50
0.0
 51
90.0
  0
ARC
  5
D2
330
1B
100
AcDbEntity
 67
     1
  8
0
  6
Continuous
 62
     7
370
    25
100
AcDbCircle
 10
-70.0
 20
20.6
 30
0.0
 40
6.59999999999998
100
AcDbArc
 50
90.0
 51
180.0
  0
ARC
  5
D3
330
1B
100
AcDbEntity
 67
     1
  8
0
  6
Continuous
 62
     7
370
    25
100
AcDbCircle
 10
-70.0
 20
20.6
 30
0.0
 40
13.39999999999999
100
AcDbArc
 50
90.0
 51
180.0
  0
VIEWPORT
  5
2AF
330
1B
100
AcDbEntity
 67
     1
  8
0
100
AcDbViewport
 10
0.0
 20
0.0
 30
0.0
 40
205.6
 41
156.0
 68
     1
 69
     1
 12
0.0
 22
0.0
 13
0.0
 23
0.0
 14
10.0
 24
10.0
 15
10.0
 25
10.0
 16
0.0
 26
0.0
 36
1.0
 17
0.0
 27
0.0
 37
0.0
 42
50.0
 43
0.0
 44
0.0
 45
134.6638132296
 50
0.0
 51
0.0
 72
   100
 90
   557152
  1

281
     0
 71
     1
 74
     0
110
0.0
120
0.0
130
0.0
111
1.0
121
0.0
131
0.0
112
0.0
122
1.0
132
0.0
 79
     0
146
0.0
  0
ENDSEC
  0
SECTION
  2
OBJECTS
  0
DICTIONARY
  5
C
330
0
100
AcDbDictionary
281
     1
  3
ACAD_GROUP
350
D
  3
ACAD_LAYOUT
350
1A
  3
ACAD_MLINESTYLE
350
17
  3
ACAD_PLOTSETTINGS
350
19
  3
ACAD_PLOTSTYLENAME
350
E
  3
ACAD_SCALELIST
350
47
  0
DICTIONARY
  5
D
102
{ACAD_REACTORS
330
C
102
}
330
C
100
AcDbDictionary
281
     1
  0
DICTIONARY
  5
1A
102
{ACAD_REACTORS
330
C
102
}
330
C
100
AcDbDictionary
281
     1
  3
_Back
350
F7
  3
_Dimetric
350
224
  3
_Front
350
1E
  3
_Isometric
350
198
  3
_Left
350
26
  3
_Right
350
14D
  3
_Top
350
175
  3
_Trimetric
350
1DF
  3
ISO PERSP
350
26B
  3
Model
350
22
  0
DICTIONARY
  5
17
102
{ACAD_REACTORS
330
C
102
}
330
C
100
AcDbDictionary
281
     1
  3
Standard
350
18
  0
DICTIONARY
  5
19
102
{ACAD_REACTORS
330
C
102
}
330
C
100
AcDbDictionary
281
     1
  0
ACDBDICTIONARYWDFLT
  5
E
102
{ACAD_REACTORS
330
C
102
}
330
C
100
AcDbDictionary
281
     1
  3
Normal
350
F
100
AcDbDictionaryWithDefault
340
F
  0
DICTIONARY
  5
47
102
{ACAD_REACTORS
330
C
102
}
330
C
100
AcDbDictionary
281
     1
  3
A0
350
48
  3
A1
350
49
  3
A2
350
4A
  3
A3
350
4B
  3
A4
350
4C
  3
A5
350
4D
  3
A6
350
4E
  3
A7
350
4F
  3
A8
350
50
  3
A9
350
51
  3
B0
350
52
  3
B1
350
53
  3
B2
350
54
  3
B3
350
55
  3
B4
350
56
  3
B5
350
57
  3
B6
350
58
  3
B7
350
59
  3
B8
350
5A
  3
B9
350
5B
  3
C0
350
5C
  3
C1
350
5D
  3
C2
350
5E
  3
C3
350
5F
  3
C4
350
60
  3
C5
350
61
  3
C6
350
62
  3
C7
350
63
  3
C8
350
64
  3
C9
350
65
  3
D0
350
66
  3
D1
350
67
  3
D2
350
68
  0
LAYOUT
  5
F7
102
{ACAD_REACTORS
330
1A
102
}
330
1A
100
AcDbPlotSettings
  1

  2
none_device
  4
ISO_A4_(210.00_x_297.00_MM)
  6

 40
7.5
 41
20.0
 42
7.5
 43
20.0
 44
210.0
 45
297.0
 46
0.0
 47
0.0
 48
0.0
 49
0.0
140
0.0
141
0.0
142
1.0
143
0.6770428016
 70
   688
 72
     1
 73
     1
 74
     1
  7

 75
     0
147
1.4770114943
148
87.0
149
0.0
100
AcDbLayout
  1
_Back
 70
     1
 71
     3
 10
0.0
 20
0.0
 11
0.0
 21
0.0
 12
0.0
 22
0.0
 32
0.0
 14
0.0
 24
0.0
 34
0.0
 15
0.0
 25
0.0
 35
0.0
146
0.0
 13
0.0
 23
0.0
 33
0.0
 16
1.0
 26
0.0
 36
0.0
 17
0.0
 27
1.0
 37
0.0
 76
     0
330
F6
331
2B3
  0
LAYOUT
  5
224
102
{ACAD_REACTORS
330
1A
102
}
330
1A
100
AcDbPlotSettings
  1

  2
none_device
  4
ISO_A4_(210.00_x_297.00_MM)
  6

 40
7.5
 41
20.0
 42
7.5
 43
20.0
 44
210.0
 45
297.0
 46
0.0
 47
0.0
 48
0.0
 49
0.0
140
0.0
141
0.0
142
1.0
143
0.6770428016
 70
   688
 72
     1
 73
     1
 74
     1
  7

 75
     0
147
1.4770114943
148
87.0
149
0.0
100
AcDbLayout
  1
_Dimetric
 70
     1
 71
     8
 10
0.0
 20
0.0
 11
0.0
 21
0.0
 12
0.0
 22
0.0
 32
0.0
 14
0.0
 24
0.0
 34
0.0
 15
0.0
 25
0.0
 35
0.0
146
0.0
 13
0.0
 23
0.0
 33
0.0
 16
1.0
 26
0.0
 36
0.0
 17
0.0
 27
1.0
 37
0.0
 76
     0
330
223
331
2BD
  0
LAYOUT
  5
1E
102
{ACAD_REACTORS
330
1A
102
}
330
1A
100
AcDbPlotSettings
  1

  2
none_device
  4
ISO_A4_(210.00_x_297.00_MM)
  6

 40
7.5
 41
20.0
 42
7.5
 43
20.0
 44
210.0
 45
297.0
 46
0.0
 47
0.0
 48
0.0
 49
0.0
140
0.0
141
0.0
142
1.0
143
0.6770428016
 70
   688
 72
     1
 73
     1
 74
     1
  7

 75
     0
147
1.4770114943
148
87.0
149
0.0
100
AcDbLayout
  1
_Front
 70
     1
 71
     1
 10
-100.5408560311
 20
-5.0778210117
 11
100.5408560311
 21
137.1011673152
 12
0.0
 22
0.0
 32
0.0
 14
-87.0
 24
0.0
 34
0.0
 15
87.0
 25
34.0
 35
0.0
146
0.0
 13
0.0
 23
0.0
 33
0.0
 16
1.0
 26
0.0
 36
0.0
 17
0.0
 27
1.0
 37
0.0
 76
     0
330
1B
331
2AF
  0
LAYOUT
  5
198
102
{ACAD_REACTORS
330
1A
102
}
330
1A
100
AcDbPlotSettings
  1

  2
none_device
  4
ISO_A4_(210.00_x_297.00_MM)
  6

 40
7.5
 41
20.0
 42
7.5
 43
20.0
 44
210.0
 45
297.0
 46
0.0
 47
0.0
 48
0.0
 49
0.0
140
0.0
141
0.0
142
1.0
143
0.6770428016
 70
   688
 72
     1
 73
     1
 74
     1
  7

 75
     0
147
1.4770114943
148
87.0
149
0.0
100
AcDbLayout
  1
_Isometric
 70
     1
 71
     6
 10
0.0
 20
0.0
 11
0.0
 21
0.0
 12
0.0
 22
0.0
 32
0.0
 14
0.0
 24
0.0
 34
0.0
 15
0.0
 25
0.0
 35
0.0
146
0.0
 13
0.0
 23
0.0
 33
0.0
 16
1.0
 26
0.0
 36
0.0
 17
0.0
 27
1.0
 37
0.0
 76
     0
330
197
331
2B9
  0
LAYOUT
  5
26
102
{ACAD_REACTORS
330
1A
102
}
330
1A
100
AcDbPlotSettings
  1

  2
none_device
  4
ISO_A4_(210.00_x_297.00_MM)
  6

 40
7.5
 41
20.0
 42
7.5
 43
20.0
 44
210.0
 45
297.0
 46
0.0
 47
0.0
 48
0.0
 49
0.0
140
0.0
141
0.0
142
1.0
143
0.6770428016
 70
   688
 72
     1
 73
     1
 74
     1
  7

 75
     0
147
1.4770114943
148
87.0
149
0.0
100
AcDbLayout
  1
_Left
 70
     1
 71
     2
 10
0.0
 20
0.0
 11
0.0
 21
0.0
 12
0.0
 22
0.0
 32
0.0
 14
0.0
 24
0.0
 34
0.0
 15
0.0
 25
0.0
 35
0.0
146
0.0
 13
0.0
 23
0.0
 33
0.0
 16
1.0
 26
0.0
 36
0.0
 17
0.0
 27
1.0
 37
0.0
 76
     0
330
23
331
2B1
  0
LAYOUT
  5
14D
102
{ACAD_REACTORS
330
1A
102
}
330
1A
100
AcDbPlotSettings
  1

  2
none_device
  4
ISO_A4_(210.00_x_297.00_MM)
  6

 40
7.5
 41
20.0
 42
7.5
 43
20.0
 44
210.0
 45
297.0
 46
0.0
 47
0.0
 48
0.0
 49
0.0
140
0.0
141
0.0
142
1.0
143
0.6770428016
 70
   688
 72
     1
 73
     1
 74
     1
  7

 75
     0
147
1.4770114943
148
87.0
149
0.0
100
AcDbLayout
  1
_Right
 70
     1
 71
     4
 10
0.0
 20
0.0
 11
0.0
 21
0.0
 12
0.0
 22
0.0
 32
0.0
 14
0.0
 24
0.0
 34
0.0
 15
0.0
 25
0.0
 35
0.0
146
0.0
 13
0.0
 23
0.0
 33
0.0
 16
1.0
 26
0.0
 36
0.0
 17
0.0
 27
1.0
 37
0.0
 76
     0
330
14C
331
2B5
  0
LAYOUT
  5
175
102
{ACAD_REACTORS
330
1A
102
}
330
1A
100
AcDbPlotSettings
  1

  2
none_device
  4
ISO_A4_(210.00_x_297.00_MM)
  6

 40
7.5
 41
20.0
 42
7.5
 43
20.0
 44
210.0
 45
297.0
 46
0.0
 47
0.0
 48
0.0
 49
0.0
140
0.0
141
0.0
142
1.0
143
0.6770428016
 70
   688
 72
     1
 73
     1
 74
     1
  7

 75
     0
147
1.4770114943
148
87.0
149
0.0
100
AcDbLayout
  1
_Top
 70
     1
 71
     5
 10
0.0
 20
0.0
 11
0.0
 21
0.0
 12
0.0
 22
0.0
 32
0.0
 14
0.0
 24
0.0
 34
0.0
 15
0.0
 25
0.0
 35
0.0
146
0.0
 13
0.0
 23
0.0
 33
0.0
 16
1.0
 26
0.0
 36
0.0
 17
0.0
 27
1.0
 37
0.0
 76
     0
330
174
331
2B7
  0
LAYOUT
  5
1DF
102
{ACAD_REACTORS
330
1A
102
}
330
1A
100
AcDbPlotSettings
  1

  2
none_device
  4
ISO_A4_(210.00_x_297.00_MM)
  6

 40
7.5
 41
20.0
 42
7.5
 43
20.0
 44
210.0
 45
297.0
 46
0.0
 47
0.0
 48
0.0
 49
0.0
140
0.0
141
0.0
142
1.0
143
0.6770428016
 70
   688
 72
     1
 73
     1
 74
     1
  7

 75
     0
147
1.4770114943
148
87.0
149
0.0
100
AcDbLayout
  1
_Trimetric
 70
     1
 71
     7
 10
0.0
 20
0.0
 11
0.0
 21
0.0
 12
0.0
 22
0.0
 32
0.0
 14
0.0
 24
0.0
 34
0.0
 15
0.0
 25
0.0
 35
0.0
146
0.0
 13
0.0
 23
0.0
 33
0.0
 16
1.0
 26
0.0
 36
0.0
 17
0.0
 27
1.0
 37
0.0
 76
     0
330
1DE
331
2BB
  0
LAYOUT
  5
26B
102
{ACAD_REACTORS
330
1A
102
}
330
1A
100
AcDbPlotSettings
  1

  2
none_device
  4
ISO_A4_(210.00_x_297.00_MM)
  6

 40
7.5
 41
20.0
 42
7.5
 43
20.0
 44
210.0
 45
297.0
 46
0.0
 47
0.0
 48
0.0
 49
0.0
140
0.0
141
0.0
142
1.0
143
0.6770428016
 70
   688
 72
     1
 73
     1
 74
     1
  7

 75
     0
147
1.4770114943
148
87.0
149
0.0
100
AcDbLayout
  1
ISO PERSP
 70
     1
 71
     9
 10
0.0
 20
0.0
 11
0.0
 21
0.0
 12
0.0
 22
0.0
 32
0.0
 14
0.0
 24
0.0
 34
0.0
 15
0.0
 25
0.0
 35
0.0
146
0.0
 13
0.0
 23
0.0
 33
0.0
 16
1.0
 26
0.0
 36
0.0
 17
0.0
 27
1.0
 37
0.0
 76
     0
330
26A
331
2BF
  0
LAYOUT
  5
22
102
{ACAD_REACTORS
330
1A
102
}
330
1A
100
AcDbPlotSettings
  1

  2
none_device
  4
ANSI_A_(11.00_x_8.50_Inches)
  6

 40
6.35
 41
19.05
 42
6.35000508
 43
19.05000254
 44
279.4
 45
215.9
 46
133.34999746
 47
88.89999873
 48
0.0
 49
0.0
140
0.0
141
0.0
142
0.0625862069
143
1.0
 70
  1696
 72
     0
 73
     0
 74
     0
  7

 75
     0
147
0.0179189148
148
-1300.4909072572
149
0.0
100
AcDbLayout
  1
Model
 70
     1
 71
     0
 10
0.0
 20
0.0
 11
420.0
 21
297.0
 12
0.0
 22
0.0
 32
0.0
 14
-87.0
 24
-7.0
 34
0.0
 15
87.0
 25
7.0
 35
0.0
146
0.0
 13
0.0
 23
0.0
 33
0.0
 16
1.0
 26
0.0
 36
0.0
 17
0.0
 27
1.0
 37
0.0
 76
     0
330
1F
331
29
  0
MLINESTYLE
  5
18
102
{ACAD_REACTORS
330
17
102
}
330
17
100
AcDbMlineStyle
  2
Standard
 70
     0
  3

 62
   256
 51
90.0
 52
90.0
 71
     2
 49
0.5
 62
   256
  6
BYLAYER
 49
-0.5
 62
   256
  6
BYLAYER
  0
ACDBPLACEHOLDER
  5
F
102
{ACAD_REACTORS
330
E
102
}
330
E
  0
SCALE
  5
48
102
{ACAD_REACTORS
330
47
102
}
330
47
100
AcDbScale
 70
     0
300
1:1
140
1.0
141
1.0
290
     1
  0
SCALE
  5
49
102
{ACAD_REACTORS
330
47
102
}
330
47
100
AcDbScale
 70
     0
300
1:2
140
1.0
141
2.0
290
     0
  0
SCALE
  5
4A
102
{ACAD_REACTORS
330
47
102
}
330
47
100
AcDbScale
 70
     0
300
1:4
140
1.0
141
4.0
290
     0
  0
SCALE
  5
4B
102
{ACAD_REACTORS
330
47
102
}
330
47
100
AcDbScale
 70
     0
300
1:5
140
1.0
141
5.0
290
     0
  0
SCALE
  5
4C
102
{ACAD_REACTORS
330
47
102
}
330
47
100
AcDbScale
 70
     0
300
1:8
140
1.0
141
8.0
290
     0
  0
SCALE
  5
4D
102
{ACAD_REACTORS
330
47
102
}
330
47
100
AcDbScale
 70
     0
300
1:10
140
1.0
141
10.0
290
     0
  0
SCALE
  5
4E
102
{ACAD_REACTORS
330
47
102
}
330
47
100
AcDbScale
 70
     0
300
1:16
140
1.0
141
16.0
290
     0
  0
SCALE
  5
4F
102
{ACAD_REACTORS
330
47
102
}
330
47
100
AcDbScale
 70
     0
300
1:20
140
1.0
141
20.0
290
     0
  0
SCALE
  5
50
102
{ACAD_REACTORS
330
47
102
}
330
47
100
AcDbScale
 70
     0
300
1:30
140
1.0
141
30.0
290
     0
  0
SCALE
  5
51
102
{ACAD_REACTORS
330
47
102
}
330
47
100
AcDbScale
 70
     0
300
1:40
140
1.0
141
40.0
290
     0
  0
SCALE
  5
52
102
{ACAD_REACTORS
330
47
102
}
330
47
100
AcDbScale
 70
     0
300
1:50
140
1.0
141
50.0
290
     0
  0
SCALE
  5
53
102
{ACAD_REACTORS
330
47
102
}
330
47
100
AcDbScale
 70
     0
300
1:100
140
1.0
141
100.0
290
     0
  0
SCALE
  5
54
102
{ACAD_REACTORS
330
47
102
}
330
47
100
AcDbScale
 70
     0
300
2:1
140
2.0
141
1.0
290
     0
  0
SCALE
  5
55
102
{ACAD_REACTORS
330
47
102
}
330
47
100
AcDbScale
 70
     0
300
4:1
140
4.0
141
1.0
290
     0
  0
SCALE
  5
56
102
{ACAD_REACTORS
330
47
102
}
330
47
100
AcDbScale
 70
     0
300
8:1
140
8.0
141
1.0
290
     0
  0
SCALE
  5
57
102
{ACAD_REACTORS
330
47
102
}
330
47
100
AcDbScale
 70
     0
300
10:1
140
10.0
141
1.0
290
     0
  0
SCALE
  5
58
102
{ACAD_REACTORS
330
47
102
}
330
47
100
AcDbScale
 70
     0
300
100:1
140
100.0
141
1.0
290
     0
  0
SCALE
  5
59
102
{ACAD_REACTORS
330
47
102
}
330
47
100
AcDbScale
 70
     0
300
1/128" = 1'-0"
140
0.0078125
141
12.0
290
     0
  0
SCALE
  5
5A
102
{ACAD_REACTORS
330
47
102
}
330
47
100
AcDbScale
 70
     0
300
1/64" = 1'-0"
140
0.015625
141
12.0
290
     0
  0
SCALE
  5
5B
102
{ACAD_REACTORS
330
47
102
}
330
47
100
AcDbScale
 70
     0
300
1/32" = 1'-0"
140
0.03125
141
12.0
290
     0
  0
SCALE
  5
5C
102
{ACAD_REACTORS
330
47
102
}
330
47
100
AcDbScale
 70
     0
300
1/16" = 1'-0"
140
0.0625
141
12.0
290
     0
  0
SCALE
  5
5D
102
{ACAD_REACTORS
330
47
102
}
330
47
100
AcDbScale
 70
     0
300
3/32" = 1'-0"
140
0.09375
141
12.0
290
     0
  0
SCALE
  5
5E
102
{ACAD_REACTORS
330
47
102
}
330
47
100
AcDbScale
 70
     0
300
1/8" = 1'-0"
140
0.125
141
12.0
290
     0
  0
SCALE
  5
5F
102
{ACAD_REACTORS
330
47
102
}
330
47
100
AcDbScale
 70
     0
300
3/16" = 1'-0"
140
0.1875
141
12.0
290
     0
  0
SCALE
  5
60
102
{ACAD_REACTORS
330
47
102
}
330
47
100
AcDbScale
 70
     0
300
1/4" = 1'-0"
140
0.25
141
12.0
290
     0
  0
SCALE
  5
61
102
{ACAD_REACTORS
330
47
102
}
330
47
100
AcDbScale
 70
     0
300
3/8" = 1'-0"
140
0.375
141
12.0
290
     0
  0
SCALE
  5
62
102
{ACAD_REACTORS
330
47
102
}
330
47
100
AcDbScale
 70
     0
300
1/2" = 1'-0"
140
0.5
141
12.0
290
     0
  0
SCALE
  5
63
102
{ACAD_REACTORS
330
47
102
}
330
47
100
AcDbScale
 70
     0
300
3/4" = 1'-0"
140
0.75
141
12.0
290
     0
  0
SCALE
  5
64
102
{ACAD_REACTORS
330
47
102
}
330
47
100
AcDbScale
 70
     0
300
1" = 1'-0"
140
1.0
141
12.0
290
     0
  0
SCALE
  5
65
102
{ACAD_REACTORS
330
47
102
}
330
47
100
AcDbScale
 70
     0
300
1-1/2" = 1'-0"
140
1.5
141
12.0
290
     0
  0
SCALE
  5
66
102
{ACAD_REACTORS
330
47
102
}
330
47
100
AcDbScale
 70
     0
300
3" = 1'-0"
140
3.0
141
12.0
290
     0
  0
SCALE
  5
67
102
{ACAD_REACTORS
330
47
102
}
330
47
100
AcDbScale
 70
     0
300
6" = 1'-0"
140
6.0
141
12.0
290
     0
  0
SCALE
  5
68
102
{ACAD_REACTORS
330
47
102
}
330
47
100
AcDbScale
 70
     0
300
1'-0" = 1'-0"
140
12.0
141
12.0
290
     0
  0
ENDSEC
  0
EOF
